MUZBANK



A Most Complete Bank Of Music Information

МУЗЫКАЛЬНО-ИНФОРМАЦИОННЫЙ БАНК

Поиск по сайту







    PPlacebo • Plasticine (аккорды и текст - chords & lyrics)


    199

    Print

    Видео «Plasticine (Placebo)»

    Видео клипы к песне подбираются автоматически сайтом youtube. Возможны некоторые несоответствия клипов песне.

    ↑ Спрятать рекламу ↑



    Download



     
    
    
    Artist: Placebo
    Song: Plasticine
    Album: Sleeping With Ghosts
    Tabbed by: Mark
    Email: Feel_wick@hotmail.com
    
    Standard tuning
    
    Intro/Verse 
    e|-----------------------------------------------------------------------------------
    B|-----------------------------------------------------------------------------------
    G|-----------------------------------------------------------------------------------
    D|-10-10-10-10-10-10-10-10-10-10-10-10-10-10--7-7-7-7-7-7-7--14-14-14-14-14-14-14-14- (X2)
    A|-10-10-10-10-10-10-10-10-10-10-10-10-10-10--7-7-7-7-7-7-7--14-14-14-14-14-14-14-14-
    E|-8--8--8--8--8--8--8--8--8--8--8--8--8--8---5-5-5-5-5-5-5--12-12-12-12-12-12-12-12-
    
    e|----------------------------------------------------------------------
    B|----------------------------------------------------------------------
    G|----------------------------------------------------------------------
    D|-12-12-12-12-12-12-12-12-12--9-9-9-9-9-9-9-9--14-14-14-14-14-14-14-14-
    A|-12-12-12-12-12-12-12-12-12--9-9-9-9-9-9-9-9--14-14-14-14-14-14-14-14-
    E|-10-10-10-10-10-10-10-10-10--7-7-7-7-7-7-7-7--12-12-12-12-12-12-12-12-
    
    e|----------------------------------------------------
    B|----------------------------------------------------
    G|----------------------------------------------------
    D|-7-7-7-7-7-7-7--14-14-14-14-14-14-14-14-14-14-14-14-
    A|-7-7-7-7-7-7-7--14-14-14-14-14-14-14-14-14-14-14-14-
    E|-5-5-5-5-5-5-5--12-12-12-12-12-12-12-12-12-12-12-12-
    
    Repeat Verse
    
    Chorus (0.47)
    e|------------------------------------
    B|------------------------------------
    G|------------------------------------
    D|---7------14------------------------ (X4)
    A|---7------14------------------------
    E|---5------12------6-6-7-6-7-6-7-6-4-
    
    Repeat Verse
    
    Repeat Chorus
    
    Solo (2.01)
    e|-------------------------------------------------------------------
    B|-------------------------------------------------------------------
    G|-------------------------------------------------------------------
    D|--7-7-7-7-7-7-7-9-9-9-9-9-9-9-10-10-10-10-10-10-10-8-8-8-8-8-8-8-8- (X2)
    A|-------------------------------------------------------------------
    E|-------------------------------------------------------------------
    
    then
    e|------------------------------------------------------------------------------------
    B|------------------------------------------------------------------------------------
    G|------------------------------------------------------------------------------------
    D|10-10-10-10-10-10-10-11-11-11-11-11-11-11-12-12-12-12-12-12-12-13-13-13-13-13-13-13-
    A|------------------------------------------------------------------------------------
    E|------------------------------------------------------------------------------------
    
    E|------------------------------------------------------------------------------------
    B|------------------------------------------------------------------------------------
    G|------------------------------------------------------------------------------------
    D|-14-14-14-14-14-14-14-15-15-15-15-15-15-15-16-16-16-16-16-16-16-17b-17b-17b-17b-17b-
    A|------------------------------------------------------------------------------------
    E|------------------------------------------------------------------------------------
    
    Repeat Chorus
    
    Outro (2.51)
    e|--------------------------------------------------------
    B|--------------------------------------------------------
    G|--------------------------------------------------------
    D|-10-7-7-7-7--10-7-7-7-7--12-12-12-12-12--14-14-14-14-14- (X4)
    A|-10-7-7-7-7--10-7-7-7-7--12-12-12-12-12--14-14-14-14-14-
    E|-8--5-5-5-5--8--5-5-5-5--10-10-10-10-10--12-12-12-12-12-
    
    End on
    e|----
    B|----
    G|----
    D|--7-
    A|--7-
    E|--5-
     

    Тональность:

    Нет текста!



    Назад
    Рекомендуем посмотреть другие песни исполнителя «Placebo»:

    • Комментарии Facebook ()
    • Комментарии ВКонтакте



    Добавить в Избранное Браузера
    Сохранить здесь Очистить


    x

    0


    +
    -

    +
    -

    -

    Авторизация





    Зарегистрироваться

    M

    Дата и время

    • 15:04:45
       

    Социальные ссылки


    Наши приложения

    • Muzbank App Play Market
    • Muzbank Amazon App