MUZBANK



A Most Complete Bank Of Music Information

МУЗЫКАЛЬНО-ИНФОРМАЦИОННЫЙ БАНК

Поиск по сайту







    PPlacebo • Second Sight (аккорды и текст - chords & lyrics)


    330

    Print

    Видео «Second Sight (Placebo)»

    Видео клипы к песне подбираются автоматически сайтом youtube. Возможны некоторые несоответствия клипов песне.

    ↑ Спрятать рекламу ↑



    Download


     
    
    
    Artist: Placebo
    Song: Second Sight
    Album: Sleeping With Ghosts
    Tabbed by: Mark
    Email: Feel_wick@hotmail.com
    
    Standard tuning
    
    Intro/Verse 
    e|-----------------------------
    B|-----------------------------
    G|-----------------------------
    D|----------------------------- (X 12)
    A|-9-9-9-9-9-9-9-9-9--8p-8p-8p-
    E|-----------------------------
    
    then (0.33) (part 1)
    e|-----------------------------------------
    B|-----------------------------------------
    G|-11-11-11-11-11-11-11-11-6-6-6-6-6-6-6-6-
    D|-11-11-11-11-11-11-11-11-6-6-6-6-6-6-6-6- (X 2)
    A|-9--9--9--9--9--9--9--9--4-4-4-4-4-4-4-4-
    E|-----------------------------------------
    then
    e|----------------------------------------------------------
    B|----------------------------------------------------------
    G|-15-15-15-15-15-15-15-15-15-15-15-15-15-15-15-15-15-15-15-
    D|-15-15-15-15-15-15-15-15-15-15-15-15-15-15-15-15-15-15-15-
    A|-13-13-13-13-13-13-13-13-13-13-13-13-13-13-13-13-13-13-13-
    E|----------------------------------------------------------
    
    repeat verse (X 10) (0.44)
    
    then (1.07) (part 2)
    e|---------------------------------------------------
    B|---------------------------------------------------
    G|-11-11-11-11-11-11-11-11-6-6-6-6-6-6-6-6-4-4-4-4-4-
    D|-11-11-11-11-11-11-11-11-6-6-6-6-6-6-6-6-4-4-4-4-4-
    A|-9--9--9--9--9--9--9--9--4-4-4-4-4-4-4-4-2-2-2-2-2-
    E|---------------------------------------------------
                                                                      (X2)
    e|--------------------------------------------------------
    B|--------------------------------------------------------
    G|-11-11-11-11-11-11-11-11-6-6-6-6-6-6-6-6-13-13-13-13-13-
    D|-11-11-11-11-11-11-11-11-6-6-6-6-6-6-6-6-13-13-13-13-13-
    A|-9--9--9--9--9--9--9--9--4-4-4-4-4-4-4-4-11-11-11-11-11-
    E|--------------------------------------------------------
    
    Chorus (1.18)
    e|--------------------------------------------------------------------------
    B|--------------------------------------------------------------------------
    G|--------------------------------------------------------------------------
    D|-19-19-19-19-19-19-19-19-19-12-10-8----15-15-15-15-15-15-15-15-15-12-10-8- (X 2)
    A|--------------------------------------------------------------------------
    E|--------------------------------------------------------------------------
    
    then (1.29)
    e|---
    B|---
    G|---
    D|---
    A|-9-
    E|---
    
    (1.51)
    e|-----------------------------
    B|-----------------------------
    G|-----------------------------
    D|-4-4-4-4-4-4-4-8-8-8-8-8-8-8- (X4)
    A|-4-4-4-4-4-4-4-8-8-8-8-8-8-8-
    E|-2-2-2-2-2-2-2-6-6-6-6-6-6-6-
    
    Repeat (part 2) (X 2) (2.02)
    
    then
    Repeat Chorus (X 4) (2.13)
    
    End on
    e|---
    B|---
    G|---
    D|---
    A|-9-
    E|---
     

    Тональность:

    Нет текста!



    Назад
    Рекомендуем посмотреть другие песни исполнителя «Placebo»:

    • Комментарии Facebook ()
    • Комментарии ВКонтакте



    Добавить в Избранное Браузера
    Сохранить здесь Очистить


    x

    0


    +
    -

    +
    -

    -

    Авторизация





    Зарегистрироваться

    M

    Дата и время

    • 15:58:59
       

    Социальные ссылки


    Наши приложения

    • Muzbank App Play Market
    • Muzbank Amazon App