MUZBANK



A Most Complete Bank Of Music Information

МУЗЫКАЛЬНО-ИНФОРМАЦИОННЫЙ БАНК

Поиск по сайту







    PPlacebo • Special K (аккорды и текст - chords & lyrics)


    276

    Print

    Видео «Special K (Placebo)»

    Видео клипы к песне подбираются автоматически сайтом youtube. Возможны некоторые несоответствия клипов песне.

    ↑ Спрятать рекламу ↑



    Download



     
    
    
    Placebo - Special K 
    
    Intro/Verse
    G-------------------|----------------|
    D-------------------|----------------|
    A-------------------|------8-6-------|(skip this part
    E-6-6-6666-6-6-6666-|-6-6h8----9-8-6-|the first time)
    
    G--------------------|--------------|
    D--------------------|--------------|
    A--------------------|--------------|
    E--2-2-2222-2-2-2222-|2-2-2224-4-6-6|
    
    Pre-chorus
    
    G----------|----------------|
    D----------|--------15(x 8)-|
    A-4(x 16)--|6(x 8)----------|
    E----------|----------------|
    
    Chorus
    
    G---------------|-------------|
    D---------------|-------------|
    A--4(x 16)------|-------------|(x 2)
    E---------------|6(x 16)------|
    
    G-----------------|
    D---------4443-33-|
    A-----------------|(x 4)
    E-2--22-2---------|
    
    Last note of the song
    G-----
    D-----
    A--4--
    E-----
     

    Тональность:

    Нет текста!



    Назад
    Рекомендуем посмотреть другие песни исполнителя «Placebo»:

    • Комментарии Facebook ()
    • Комментарии ВКонтакте



    Добавить в Избранное Браузера
    Сохранить здесь Очистить


    x

    0


    +
    -

    +
    -

    -

    Авторизация





    Зарегистрироваться

    M

    Дата и время

    • 01:01:10
       

    Социальные ссылки


    Наши приложения

    • Muzbank App Play Market
    • Muzbank Amazon App