MUZBANK



A Most Complete Bank Of Music Information

МУЗЫКАЛЬНО-ИНФОРМАЦИОННЫЙ БАНК

Поиск по сайту







    PPlanet Smashers • 2 Souvlaki Pita 1 Fry (аккорды и текст - chords & lyrics)


    199

    Print

    Видео «2 Souvlaki Pita 1 Fry (Planet Smashers)»

    Видео клипы к песне подбираются автоматически сайтом youtube. Возможны некоторые несоответствия клипов песне.

    ↑ Спрятать рекламу ↑



    Download


     
    
    
    Song: 2 Souvlaki Pita, 1 Fry 
    Band: The Planet Smashers 
    Album: The Planet Smashers 
    By:BassD 
    
    /=slide down =slide up 
    r=let the note sound 
    
    (No bass in intro) 
    Verse 1 (00:18) 
    G|(x4)-------------|(x4)------------------------------| 
    D|-----------------|----------------------------------| 
    A|-------7-5-7-8-7-|-------------7-7-5-5-7-7-8-8-7-7--| 
    E|-5-7-8-----------|-5-5-7-7-8-8----------------------| 
    
    Chorus (00:41) 
    G|(x4)-----------------------------------| 
    D|---------------------------------------| 
    A|-/12-12-10-10-8-8-7-7-5-5-7-7-8-8-7-7--| 
    E|---------------------------------------| 
    
    Verse 2 (00:53) 
    G|(x5)----------------------------|(x2)------------------------------| 
    D|--------------------------------|----------------------------------| 
    A|-------------7-5--5-7-7-8-8-7-7-|-------------7-7-5-5-7-7-8-8-7-7--| 
    E|-5-5-7-7-8-8--------------------|-5-5-7-7-8-8----------------------| 
    
    G|(x1)----------------------| 
    D|--------------------------| 
    A|-------------7-7-5-7-8-7--| 
    E|-5-5-7-7-8-8--------------| 
    
    (Chorus) (01:16-01:17) 
    
    Verse 3 is the mellow part with Brass solos (01:28-01:29) 
    G|(x4)-------------|----------------------------------| 
    D|-----------------|----------------------------------| 
    A|-------7-5-7-8-7-|-------------7-7-5-5-7-7-8-8-7-7--| 
    E|-5-7-8-----------|-5-5-7-7-8-8----------------------| 
    
    G|--------------------------------|(x2)------------------------------| 
    D|--------------------------------|----------------------------------| 
    A|-------------7-5--5-7-7-8-8-7-7-|-------------7-7-5-5-7-7-8-8-7-7--| 
    E|-5-5-7-7-8-8--------------------|-5-5-7-7-8-8----------------------| 
    
    (Chorus) (01:52) 
    
    Outro (02:03-02:04) 
    G|---------------------------------|---------------------------------| 
    D|---------------------------------|---------------------------------| 
    A|-------------7-7-5-5-7-7-8-8-7-7-|-------------7-5--5-7-7-8-8-7-7--| 
    E|-5-5-7-7-8-8---------------------|-5-5-7-7-8-8---------------------| 
    
    G|(x5)-----------------------------|--------------------------------| 
    D|---------------------------------|--------------------------------| 
    A|-------------7-7-5-5-7-7-8-8-7-7-|-------------7-7-5--7-----------| 
    E|-5-5-7-7-8-8---------------------|-5-5-7-7-8-8-----------8--7--5r-| 
    End 
    
    Yahoo! Ska Rulz! 
    rancid_ska@hotmail.com
     

    Тональность:

    Нет текста!



    Назад
    Рекомендуем посмотреть другие песни исполнителя «Planet Smashers»:

    • Комментарии Facebook ()
    • Комментарии ВКонтакте



    Добавить в Избранное Браузера
    Сохранить здесь Очистить


    x

    0


    +
    -

    +
    -

    -

    Авторизация





    Зарегистрироваться

    M

    Дата и время

    • 23:17:57
       

    Социальные ссылки


    Наши приложения

    • Muzbank App Play Market
    • Muzbank Amazon App