MUZBANK



A Most Complete Bank Of Music Information

МУЗЫКАЛЬНО-ИНФОРМАЦИОННЫЙ БАНК

Поиск по сайту







    PPlanet Smashers • Coolest Guy In The Whole World (аккорды и текст - chords & lyrics)


    256

    Print

    Видео «Coolest Guy In The Whole World (Planet Smashers)»

    Видео клипы к песне подбираются автоматически сайтом youtube. Возможны некоторые несоответствия клипов песне.

    ↑ Спрятать рекламу ↑



    Download


     
    
    
    Tabbed by Dan Ware
    I am almost positive this is correct but email me if you have corrections
    dcsk8er@mail.com
    
    Intro
    E|--------------8---------------------------8-6-|
    B|------------8---------6-----6-----6-----6-----|
    G|-7/8-10-8-9-----9-6h7---6h7---6h7---6h7-------|
    D|----------------------------------------------|
    A|----------------------------------------------|
    E|----------------------------------------------|
    
    Verse (use ska strumming)
    E|-3--8--6-|
    B|-4--8--6-|
    G|-3--9--7-|
    D|---------|
    A|---------|
    E|---------|
    
    Chorus (use ska strumming)
    E|-4--6--3-|
    B|-4--6--4-|
    G|-5--7--3-|
    D|---------|
    A|---------|
    E|---------|
    
    Solo
    E|--------------8---------------------------8-6-|
    B|------------8---------6-----6-----6-----6-----|
    G|-7/8-10-8-9-----9-6h7---6h7---6h7---6h7-------|
    D|----------------------------------------------|
    A|----------------------------------------------|
    E|----------------------------------------------|
    
    E|-11-11-11-11--8-8-8------6-----6-----6-----6-----6-6-|
    B|-11-11-11-11--8-8-8--5/6-6-5/6-6-5/6-6-5/6-6-5/6-6-6-|
    G|-12-12-12-12--9-9-9------7-----7-----7-----7-----7-7-|
    D|-----------------------------------------------------|
    A|-----------------------------------------------------|
    E|-----------------------------------------------------|
     

    Тональность:

    Нет текста!



    Назад
    Рекомендуем посмотреть другие песни исполнителя «Planet Smashers»:

    • Комментарии Facebook ()
    • Комментарии ВКонтакте



    Добавить в Избранное Браузера
    Сохранить здесь Очистить


    x

    0


    +
    -

    +
    -

    -

    Авторизация





    Зарегистрироваться

    M

    Дата и время

    • 19:25:28
       

    Социальные ссылки


    Наши приложения

    • Muzbank App Play Market
    • Muzbank Amazon App