MUZBANK



A Most Complete Bank Of Music Information

МУЗЫКАЛЬНО-ИНФОРМАЦИОННЫЙ БАНК

Поиск по сайту







    PP.O.D. • Image (аккорды и текст - chords & lyrics)


    239

    Print

    Видео «Image (P.O.D.)»

    Видео клипы к песне подбираются автоматически сайтом youtube. Возможны некоторые несоответствия клипов песне.

    ↑ Спрятать рекламу ↑



    Download


     
    
    
    Image.tab By P.O.D
    
    Transcribed by Kamakazee22
    
    Riff1:
    E------------------------|
    G------------------------|
    B------------------------|
    D-3-0-12-12--12-12-12-12-|
    A-3-0-12-12--12-12-12-12-|
    D-3-0-12-12--12-12-12-12-|
    
    Riff2:
    E---------------------|
    G---------------------|
    B---------------------|
    D-3--3-3--3--3-3--3-3-|
    A-3--3-3--3--3-3--3-3-|
    D-3--3-3--3--3-3--3-3-|
    
    **During Inhale-exhale play fret3 chord as 16th notes.**
    
    Riff3:
    E-------------|
    B-------------|                       -0-
    G-------------|                       -0-
    D-2-3-0-2-3-2-|every other time end w/-0-.
    A-2-3-0-2-3-2-|
    D-2-3-0-2-3-2-|
    
    Riff4:
    E-----------------------------------|
    B-----------------------------------|
    G-9-9-9--10-10-10--7-7-7------------|
    D-9-9-9--10-10-10--7-7-7--2-3-0-2-3-|
    A-7-7-7--8--8--8---5-5-5--2-3-0-2-3-|
    D-------------------------2-3-0-2-3-|
    
    
    *If you listen to the songs you
      can put the riffs in order.
     

    Тональность:

    Нет текста!



    Назад
    Рекомендуем посмотреть другие песни исполнителя «P.O.D.»:

    • Комментарии Facebook ()
    • Комментарии ВКонтакте



    Добавить в Избранное Браузера
    Сохранить здесь Очистить


    x

    0


    +
    -

    +
    -

    -

    Авторизация





    Зарегистрироваться

    M

    Дата и время

    • 12:07:06
       

    Социальные ссылки


    Наши приложения

    • Muzbank App Play Market
    • Muzbank Amazon App