MUZBANK



A Most Complete Bank Of Music Information

МУЗЫКАЛЬНО-ИНФОРМАЦИОННЫЙ БАНК

Поиск по сайту







    PP.O.D. • Portrait (аккорды и текст - chords & lyrics)


    140

    Print

    Видео «Portrait (P.O.D.)»

    Видео клипы к песне подбираются автоматически сайтом youtube. Возможны некоторые несоответствия клипов песне.

    ↑ Спрятать рекламу ↑



    Download



     
    
    
    Song Portrait
    Artist P.O.D.
    Tabbed by Chris Nelson
    Tuning low to high C,G,C,F,A,D
    
    
    
    D----0-------0------0-----0-----0---0----------------------------
    A-12---12-10---10-8---8-7---7-7---7-------0------0------0------0-
    F-------------------------------------12---12-7---7-11---11-9---
    C----------------------------------------------------------------
    G----------------------------------------------------------------
    C----------------------------------------------------------------
    
    
    D----------
    A-----0---0
    F-9-9---9--
    C----------  Repeat as needed
    G----------
    C----------
    
    
    
    Hope you like it because its 100% correct.
     

    Тональность:

    Нет текста!



    Назад
    Рекомендуем посмотреть другие песни исполнителя «P.O.D.»:

    • Комментарии Facebook ()
    • Комментарии ВКонтакте



    Добавить в Избранное Браузера
    Сохранить здесь Очистить


    x

    0


    +
    -

    +
    -

    -

    Авторизация





    Зарегистрироваться

    M

    Дата и время

    • 01:29:00
       

    Социальные ссылки


    Наши приложения

    • Muzbank App Play Market
    • Muzbank Amazon App