MUZBANK



A Most Complete Bank Of Music Information

МУЗЫКАЛЬНО-ИНФОРМАЦИОННЫЙ БАНК

Поиск по сайту







    PP.O.D. • Youth Of The Nation (аккорды и текст - chords & lyrics)


    528

    Print

    Видео «Youth Of The Nation (P.O.D.)»

    Видео клипы к песне подбираются автоматически сайтом youtube. Возможны некоторые несоответствия клипов песне.

    ↑ Спрятать рекламу ↑



    Download



     
    
    
    Artist :P.O.D.  
     Song :Youth Of The Nation    
     Tabbed by :Peter (andrei2@go2.pl) 
     ----------------------------------------------------------------------
     TABULATURE EXPLANATION:
     P.M..... = Palm mute 
     /        = slide up 
             = slide down   
     h        = hammer on 
     p        = pull off 
     ~~~~~~   = vibrato 
     X        = muffled string 
     *        = natural harmonic   
    -----------------------------------------------------------------------
                                                        
                                                                           
     intro/chorus with reverb and delay                                    
     D |---------------|
     A |---------------|
     F |---------------|
     C |-----5~--5p3p0-|
     G |---------------|
     C |-0-3-----------|
    
    verse with reverb and delay                                             
    riff 1                                                                       
     D |--------------------|                                                   
     A |--------------------|                                                   
     F |--------------------|                                                   
     C |----7~---5~-5p3p0--|                                                   
     G |--------------------|                                                   
     C |-0------3-----------|                                                   
    
    riff 2                                                                       
     D |-----12-12-12-13-13-13-13-----------------------------------|         
     A |---------------------------------1-1-3-111h3p1h3p1h3p1h3-----|
     F |---7---------------------------7-----------------------------|
     C |-7---------------------------7-------------------------------|
     G |-------------------------------------------------------------|  
     C |-------------------------------------------------------------|
         * *                         * *
    chorus
    verse
    chorus
    
    solo                        
                                                                           
                                                                           
     D |----------------------------------------------------
     A |----------------------------------------------------
     F |-------9-10--9-10-12-12p10p9-9h10p9h10p9------------
     C |---12-------------------------------------12--10----
     G |----------------------------------------------------
     C |----------------------------------------------------
    
    verse riff 2
    chorus
    
    end
                                                                           
                                                                           
     D |---------------------------------------------------------
     A |---------------------------------------------------------
     F |---------------------------------------------------------
     C |5p3p2-2h3-2h3-2/3-3333/5555555-52-222222h333333-2h3-2h3-
     G |---------------------------------------------------------
     C |---------------------------------------------------------
                                                                           
                                                                           
     D |-----------------------------------------------------|
     A |--------------------------------------------/15~~----|
     F |-----------------------------------------------------|
     C |--2h3-2h3-2h3-333333/5555555555555555----------------|
     G |-----------------------------------------------------|
     C |-----------------------------------------------------|
    
    thats all
     

    Тональность:

    Нет текста!



    Назад
    Рекомендуем посмотреть другие песни исполнителя «P.O.D.»:

    • Комментарии Facebook ()
    • Комментарии ВКонтакте



    Добавить в Избранное Браузера
    Сохранить здесь Очистить


    x

    0


    +
    -

    +
    -

    -

    Авторизация





    Зарегистрироваться

    M

    Дата и время

    • 05:33:06
       

    Социальные ссылки


    Наши приложения

    • Muzbank App Play Market
    • Muzbank Amazon App