MUZBANK



A Most Complete Bank Of Music Information

МУЗЫКАЛЬНО-ИНФОРМАЦИОННЫЙ БАНК

Поиск по сайту







    PPolice • Deathwish (аккорды и текст - chords & lyrics)


    201

    Print

    Видео «Deathwish (Police)»

    Видео клипы к песне подбираются автоматически сайтом youtube. Возможны некоторые несоответствия клипов песне.

    ↑ Спрятать рекламу ↑



    Download


    Intro:
    
    G-----------------------
    D-----------------------
    A---5--5--5-r-5-5------- (repeat 11 X's)
    E-----------------------
    
    Then play other bit:
    
    G----------------------
    D----------------------
    A---5--5--5-5--5-9-(8)-*(lightly muted)
    E----------------------
    
    (played moderately fast)
    
    G-----------------------------------------
    D-----------9--7--9--9-------9--7--7------
    A----7--10-------------7--10---------9--7- (Repeat 3X's)
    E-----------------------------------------
    
    G-----------------------------------------
    D-----------9--7--9--9-------9--7--7------
    A----7--10-------------7--10---------9⁄5--
    E-----------------------------------------
    
    Back to Intro (Repeat 11 X's again)
    Other Bit (Repeat 3 X's again)
    Intro (11 X's again)
    Other Bit (3 X's)
    Intro to fade...
    

    Тональность:

    Нет текста!



    Назад
    Рекомендуем посмотреть другие песни исполнителя «Police»:

    • Комментарии Facebook ()
    • Комментарии ВКонтакте



    Добавить в Избранное Браузера
    Сохранить здесь Очистить


    x

    0


    +
    -

    +
    -

    -

    Авторизация





    Зарегистрироваться

    M

    Дата и время

    • 22:41:34
       

    Социальные ссылки


    Наши приложения

    • Muzbank App Play Market
    • Muzbank Amazon App