MUZBANK



A MOST COMPLETE BANK OF MUSIC INFORMATION

МУЗЫКАЛЬНО-ИНФОРМАЦИОННЫЙ БАНК







    PPolice • Voices Inside My Head (аккорды и текст - chords & lyrics)


    261

    Print

    Видео «Voices Inside My Head (Police)»

    Видео клипы к песне подбираются автоматически сайтом youtube. Возможны некоторые несоответствия клипов песне.

    ↑ Спрятать рекламу ↑





    Riff A
    G*----------------*
    D*----------------*
    A*2202-----------0*
    E*----------------*
    
    
    Riff B
    G*----------------*
    D*----------------*
    A*2202-----40----0*
    E*-----------20---*
    
    
    Riff C
    G*----------------*
    D*----------------*
    A*2202---2440-----*
    E*-----------20-2-*
    
    
    Riff D
    G*----------------*
    D*----------2-4-2-*
    A*2202---24-------*
    E*----------------*
    
    
    Riff E
    G*----------------*
    D*----------------*
    A*2202---2440-----*
    E*-----------20-2-*
    

    Тональность:

    Это должно быть в ТОП-листе! - Топ-лист композиций



    Назад
    Рекомендуем посмотреть другие песни исполнителя «Police»:

    • Комменты Fb ()
    • Комменты ВК



    Добавить в Избранное Браузера
    Сохранить здесь Очистить


    x

    0


    +
    -

    +
    -

    -

    Авторизация





    Зарегистрироваться

    M

    Дата и время

    • 22:27:42
       

    Социальные ссылки


    Наши приложения

    • Muzbank App Play Market
    • Muzbank Amazon App