MUZBANK



A Most Complete Bank Of Music Information

МУЗЫКАЛЬНО-ИНФОРМАЦИОННЫЙ БАНК

Поиск по сайту







    PPowderfinger • Ill Be The One (аккорды и текст - chords & lyrics)


    224

    Print

    Видео «Ill Be The One (Powderfinger)»

    Видео клипы к песне подбираются автоматически сайтом youtube. Возможны некоторые несоответствия клипов песне.

    ↑ Спрятать рекламу ↑



    Download


     
    
    
    Standard Tuning
    verse
    e|--------------------------------|
    b|--------------------------------|
    g|--------------------------------|
    d|-2-2-2-2-2-2-2-2-4-4-4-4-4-4-4-4|
    a|-2-2-2-2-2-2-2-2-2-2-2-2-2-2-2-2|
    E|-0-0-0-0-0-0-0-0-0-0-0-0-0-0-0-0|
    
       1 & 2 & 3 & 4 & 1 & 2 & 3 & 4 &
    
    e|-2-2-2-2-2-2-2-2-0-0-0-0-0-0-0-0|
    b|-2-2-2-2-2-2-2-2-2-2-2-2-2-2-2-2|
    g|-2-2-2-2-2-2-2-2-2-2-2-2-2-2-2-2|
    d|-4-4-4-4-4-4-4-4-2-2-2-2-2-2-2-2|
    a|-4-4-4-4-4-4-4-4-0-0-0-0-0-0-0-0|
    E|-2-2-2-2-2-2-2-2----------------|
    
    chorus
    e|-------------------------------------|
    b|-------------------------------------|
    g|-------------------------------------|
    d|-6-6-6-9-11-9-11-11-11-11-11-11-11-11|
    a|-4-4-4-7--9-7--9--9--9--9--9--9--9--9|
    E|-------------------------------------|
    
    chorus outro
    e|---------------------------|
    b|---------------------------|
    g|---------------------------|
    d|-6-6-6-6-6-6-6-6-11-11-11-9|
    a|-4-4-4-4-4-4-4-4--9--9--9-7|
    E|---------------------------|
    By Sam Clayton
     

    Тональность:

    Нет текста!



    Назад
    Рекомендуем посмотреть другие песни исполнителя «Powderfinger»:

    • Комментарии Facebook ()
    • Комментарии ВКонтакте



    Добавить в Избранное Браузера
    Сохранить здесь Очистить


    x

    0


    +
    -

    +
    -

    -

    Авторизация





    Зарегистрироваться

    M

    Дата и время

    • 17:42:19
       

    Социальные ссылки


    Наши приложения

    • Muzbank App Play Market
    • Muzbank Amazon App