MUZBANK



A Most Complete Bank Of Music Information

МУЗЫКАЛЬНО-ИНФОРМАЦИОННЫЙ БАНК

Поиск по сайту







    PPowerman 5000 • Supernova Goes Pop (аккорды и текст - chords & lyrics)


    147

    Print

    Видео «Supernova Goes Pop (Powerman 5000)»

    Видео клипы к песне подбираются автоматически сайтом youtube. Возможны некоторые несоответствия клипов песне.

    ↑ Спрятать рекламу ↑



    Download



     
    
    
    Song: Supernova Goes Pop
              By: Powerman5000
              Album:  Tonight The Stars Revolt!
              Tabbed By:  Sarah S.  (BusfaceIM@aol.com)
    
              This is my first tab, so please send any
    corrections/comments/questions to me!!!  This song is played pretty fast. 
    Sometimes in the song you will hear a scratching sound.  That sound is made by
    scraping the pick up or down on the string. (I will refer to it as a pickslide)
              HEAVY DISTORTION!!! Standard Tuning.
    
    
              Intro/ Verse:                   every now and then it goes:
              e]------------------------         e]-----------------------
              B]------------------------         B]-----------------------
              G]------------------------         G]-----------------------
              D]---0-0-2-2-2-0-0-5-5-5--         D]---0-0-2-2-2-0-0-5/6/5-
              A]---0-0-2-2-2-0-0-5-5-5--         A]---0-0-2-2-2-0-0-5/6/5-
              E]---0-0-0-0-0-0-0-3-3-3--         E]---0-0-0-0-0-0-0-3/4/3-
    
    
              Use a slider for this part:
              G]-----------
              D]---1/12----   (it only happens twice in the whole song.)
              A]-----------
    
    
              The Chorus:
              e]----------------------------------------------------
              B]----------------------------------------------------
              G]---7-7-7-------------------------7-7-7--------------
              D]---7-7-7--7-7-7-5-5-5-2-2-2-xxx--7-7-7--7-7-7-5-7---
              A]---5-5-5--7-7-7-5-5-5-2-2-2-xxx--5-5-5--7-7-7-5-7---
              E]----------5-5-5-3-3-3-0-0-0-xxx---------5-5-5-3-5---
    
    
              Solo:
              G]-------------------
              D]-xxx---------------
              A]-xxx---2-2-4-2-----
              E]-xxx-----------3-2-
    
    
              Ending:
              e]----------------------------------
              B]----------------------------------
              G]---7-7-7--------------------------
              D]---7-7-7--7-7-7-5-5-5-2-2-2-5-5-7-
              A]---5-5-5--7-7-7-5-5-5-2-2-2-5-5-5-
              E]----------5-5-5-3-3-3-0-0-0-3-3-5-  palm mute last chord.
    
              Format:
              Intro, pick slide, verse, slide, verse, pick slide, verse,
              chorus, solo, verse, pick slide, verse, slide, verse,
              pick slide, verse, chorus, solo, verse, ending.
    
    ===
    
    Supernova goes pop by powerman 5000
    this is a cool song and like drop d tuning or
    Eb, Bb, F#, C#, G#, C#
    
    tabbed by bret (supernovaman5000@aol.com)
    
    Dropped D Tuning
    intro heavy dist
    Intro/ verse for a verse have gtr 2 sctratch C#
    D:-0--0--3-3-3-0---0---6-6-6-0---0---3-3-3-0---0---0h3s6s3-
    A:-0--0--3-3-3-0---0---6-6-6-0---0---3-3-3-0---0---0h3s6s3-
    D:-0--0--3-3-3-0---0---6-6-6-0---0---3-3-3-0---0---0h3s6s3-
    
    Played with main riff  b=bend (use a little phaser here)
    B-10--12--10--14--10--12--10--9b----10--12--10--14--10--12--10--14-16s17--Chorus (dist. and a little phaser)
    D---19-19-19--15-15-15--17-17-17--13-13-13---x-x-0----19-19-19--15-15-15--21-21-21-21-
    A---19-19-19--15-15-15--17-17-17--13-13-13---x-x-0----19-19-19--15-15-15--21-21-21-21-
    D---19-19-19--15-15-15--17-17-17--13-13-13---x-x-0----19-19-19--15-15-15--21-21-21-21-
    Follow for now........
    gtr 2
    E--------------------------------------
    B--------------------------------------
    G--------------------------------------
    D-----------------------------x-x-x----
    A-----------------------------x-x-x----
    D-----------------------------x-x-x----
     

    Тональность:

    Нет текста!



    Назад
    Рекомендуем посмотреть другие песни исполнителя «Powerman 5000»:

    • Комментарии Facebook ()
    • Комментарии ВКонтакте



    Добавить в Избранное Браузера
    Сохранить здесь Очистить


    x

    0


    +
    -

    +
    -

    -

    Авторизация





    Зарегистрироваться

    M

    Дата и время

    • 17:31:30
       

    Социальные ссылки


    Наши приложения

    • Muzbank App Play Market
    • Muzbank Amazon App