MUZBANK



A Most Complete Bank Of Music Information

МУЗЫКАЛЬНО-ИНФОРМАЦИОННЫЙ БАНК

Поиск по сайту







    PPowerman 5000 • Wake Up (аккорды и текст - chords & lyrics)


    321

    Print

    Видео «Wake Up (Powerman 5000)»

    Видео клипы к песне подбираются автоматически сайтом youtube. Возможны некоторые несоответствия клипов песне.

    ↑ Спрятать рекламу ↑



    Download


     
    
    
    Artist: Powerman 5000
    Song: Wake up!
    Album: Anyone for Doomsday?
    Tabbed by: NoFace
    Instrument Type: Bass
    E Mail adress: linkin_crawling@hotmail.com
    
    
    
    Intro:  WAKE UP!
    
    
    G/-----------
    D/-----------
    A/-----------
    D/0-0----0-0-  X4
    
    
    Chorus: WAKE UP  Its time to go You better leave now
    
    G/---------------------------
    D/---------------------------
    A/---------------------------
    D/0-0--5-5-5-5--0-0-1-3--0-0-
    
    G/----------------------------
    D/----------------------------
    A/----------------------------
    D/5--0-0--5--0-0--5--0-0--5-5-
    
    
    Verse: 
    
    G/------------------------------
    D/------------------------------
    A/------------------------------
    D/0000---3333---5555---77--0000-
    
    G/------------------------------------------------------------
    D/------------------------------------------------------------
    A/------------------------------------------------------------
    D/0-0-0-0-0-0-0-0--3-3-3-3-3-3-3-3---5-5-5-5-5-5-5-5--0-0-0-0-
    
    G/------------
    D/------------
    A/------------
    D/33--55--00--
    
    Bridge:
    
    G/----------------------------------------
    D/----------------------------------------
    A/----------------------------------------
    D/0-0-0-3-0-0-0-5-0-0-0-7-0-0-0-0-5-3-5-0-
     

    Тональность:

    Нет текста!



    Назад
    Рекомендуем посмотреть другие песни исполнителя «Powerman 5000»:

    • Комментарии Facebook ()
    • Комментарии ВКонтакте



    Добавить в Избранное Браузера
    Сохранить здесь Очистить


    x

    0


    +
    -

    +
    -

    -

    Авторизация





    Зарегистрироваться

    M

    Дата и время

    • 08:55:32
       

    Социальные ссылки


    Наши приложения

    • Muzbank App Play Market
    • Muzbank Amazon App