MUZBANK



A Most Complete Bank Of Music Information

МУЗЫКАЛЬНО-ИНФОРМАЦИОННЫЙ БАНК

Поиск по сайту







    PPressure 4-5 • Beat The World (аккорды и текст - chords & lyrics)


    208

    Print

    Видео «Beat The World (Pressure 4-5)»

    Видео клипы к песне подбираются автоматически сайтом youtube. Возможны некоторые несоответствия клипов песне.

    ↑ Спрятать рекламу ↑



    Download



     
    
    
    Artist- Pressure 4-5
    Song- Beat the world
    Tabber- Iconoclast
    
    Intro (delay)
    d|------------------------------------|
    a|------------------------------------|
    f|---5-7---5-4------------------------|
    c|------------------------------------|
    g|-5-----5----------------------------|
    C|------------------------------------|
    
    Intro part 2, also prechorus
    
    d|-------------------------------------|
    a|-------------------------------------|
    f|-------------------------------------|
    c|-0-3-0-3-0-3-3-3-6-0-3-0-3-0-3-------|
    g|-0-3-0-3-0-3-3-3-6-0-3-0-3-0-3-5h6p5-|
    C|-0-3-0-3-0-3-3-3-6-0-3-0-3-0-3-------|
    
    After repeating that a few times go...
    
    d|----------------------------------------|
    a|----------------------------------------|
    f|-3-3-3-3-5-5-5--------------------------|
    c|-3-3-3-3-5-5-5-0------------------------|
    g|-1-1-1-1-3-3-3-0------------------------|
    C|---------------0------------------------|
    
    Verse (it comes in pretty late in the verse)
    d|---------------------------------------------|
    a|---------------------------------------------|
    f|---5h7p5-------------------5h7p5-------7h8p7-|
    c|-----------3-3-3-3-6-6-6-----------3---------|
    g|-5-------5---------------5-------5---5-------|
    C|---------------------------------------------|
    
    Chorus
    d|---------------------------------------------|
    a|---------------------------------------------|
    f|-3-3-3-5-------------------------------------|
    c|-3-3-3-5-6-0-3-0-3-0-3-1---------------------|
    g|-1-1-1-3-6-0-3-0-3-0-3-1---------------------|
    C|---------6-0-3-0-3-0-3-1---------------------|
    
    Bridge
    d|---------------------------------------|
    a|-----------8-8-----------8-8-----------|
    f|-3-3-3-3-3-x-x-----------x-x-----------|
    c|-3-3-3-3-3-5-5-5-5-5-5-5-5-5-----------|
    g|-1-1-1-1-1-----5-5-5-5-5---------------|
    C|---------------5-5-5-5-5---------------|
    
    At the end of bridge
    d|--------------------------------------------------|
    a|--------------------------------------------------|
    f|-7-10-12---------5-5-5-5-5-5-5--------------------|
    c|-x--x--x-0-0-0-0-x-x-x-x-x-x-x--------------------|
    g|-5--8-10-0-0-0-0-3-3-3-3-5-5-5--------------------|
    C|---------0-0-0-0----------------------------------|
    
    Coming next- Pieces, Stares, and These Hands
     

    Тональность:

    Нет текста!



    Назад
    Рекомендуем посмотреть другие песни исполнителя «Pressure 4-5»:

    • Комментарии Facebook ()
    • Комментарии ВКонтакте



    Добавить в Избранное Браузера
    Сохранить здесь Очистить


    x

    0


    +
    -

    +
    -

    -

    Авторизация





    Зарегистрироваться

    M

    Дата и время

    • 03:23:15
       

    Социальные ссылки


    Наши приложения

    • Muzbank App Play Market
    • Muzbank Amazon App