MUZBANK



A Most Complete Bank Of Music Information

МУЗЫКАЛЬНО-ИНФОРМАЦИОННЫЙ БАНК

Поиск по сайту







    PPrimer 55 • Introduction To Mayhem (аккорды и текст - chords & lyrics)


    251

    Print

    Видео «Introduction To Mayhem (Primer 55)»

    Видео клипы к песне подбираются автоматически сайтом youtube. Возможны некоторые несоответствия клипов песне.

    ↑ Спрятать рекламу ↑



    Download


     
    
    
    |---!!Do not change this info!!---|
    Song:  introduction to mayhem
    Band:  Primer55
    Album: introduction to mayhem
    Tabbed by: Phoenix (chris wilson)
    E-mail: reveille@thevortex.com
    =slide
    h=hammer on
    
    Tuning: Dropped D down 1/2 step
    
    intro and verse
    ---------------------------------|
    ---------------------------------|
    ---------------------------------|
    0-22--222-233-0-22--222---------|
    0-22--222-233-0-22--222---------|
    0-22--222-233-0-22--222---------|
    
    pre chorus
    -------------------------------|
    -------------------------------|
    ---------4-457---------------|
    0-2h35--4-457---------------|
    0-2h35--2-235---------------|
    0-2h35------------------------|
    
    chorus
    -------------------------------|
    -------------------------------|
    -------------------------------|
    0-22-0-22-0-33-0-22-0-22-033---|}this is not the exact # on notes but, if you listen
    0-22-0-22-0-33-0-22-0-22-033---|to the song you will get the feel
    0-22-0-22-0-33-0-22-0-22-033---|
     

    Тональность:

    Нет текста!



    Назад
    Рекомендуем посмотреть другие песни исполнителя «Primer 55»:

    • Комментарии Facebook ()
    • Комментарии ВКонтакте



    Добавить в Избранное Браузера
    Сохранить здесь Очистить


    x

    0


    +
    -

    +
    -

    -

    Авторизация





    Зарегистрироваться

    M

    Дата и время

    • 20:51:34
       

    Социальные ссылки


    Наши приложения

    • Muzbank App Play Market
    • Muzbank Amazon App