MUZBANK



A Most Complete Bank Of Music Information

МУЗЫКАЛЬНО-ИНФОРМАЦИОННЫЙ БАНК

Поиск по сайту







    PPrimus • Toys Go Winding Down (аккорды и текст - chords & lyrics)


    215

    Print

    Видео «Toys Go Winding Down (Primus)»

    Видео клипы к песне подбираются автоматически сайтом youtube. Возможны некоторые несоответствия клипов песне.

    ↑ Спрятать рекламу ↑



    Download



     
    
    
    Intro is played on a upright bass
    G------------
    D------------ 5x
    A--2-2---3-2-
    E------1-----
    
    G--------
    D--------
    A-2/8888-
    E--------
    
    G------------
    D------------ 2x
    A--2-2---3-2-
    E------1-----
    
    This riff is best played by taking your ring finger, middle finger, and fore
    finger and hitting your ring first, then middle, then fore in a raking motion..
                            _________________
    G-----10-11----------                    |
    D-8-8-------8-8-11-8-                    |
    A-------------------- 3x                 |
    E--------------------                    |
                                             |
                                             | This played 5x before chorus
    G-----10-11-----------                   |
    D-8-8-------8-11-10---                   |
    A---------------------                   |
    E--------------------- __________________|
    
    
    Chorus
    
    G----------------
    D----------------
    A-----8-9-------- 4x
    E-6-6-----6-6-9-6
    
    G-----------------
    D-----------------
    A-----8-9---------
    E-6-6-----9-8-7-6/
    
                          ___________________
    G-----10-11----------                    |
    D-8-8-------8-8-11-8-                    |
    A-------------------- x3                 |
    E--------------------                    |
                                             |
                                             | This played 5x before chorus
    G-----10-11-----------                   |
    D-8-8-------8-11-10-9-                   |
    A---------------------                   |
    E--------------------- __________________|
    
    
    Chorus
                     _____________
    G----------------             |
    D----------------             |
    A-----8-9-------- x3          |
    E-6-6-----6-6-9-6             |
                                  | Played 3x before Bridge
    G-----------------            |
    D-----------------            |
    A-----8-9---------            |
    E-6-6-----9-8-7-6/____________|
    
    
    Bridge
    
    
    G---------------------------------------------
    D---------------------------------------------
    A-1/13-13h15r13-13h15r13-139/13-139/13-131-
    E---------------------------------------------
    
    G-----------------------------------------------------------
    D-----------------------------------------------------------
    A-1-1-------1-1-------1-1/8-9-----999-8-999-8-11-11-10----8-
    E-----1-2-------1-2-----------6-6----------------------11---
    
    G--------------------------------------------------------
    D--------------------------------------------------------
    A-1-1-8-9---1-1-8-9---1-1-8-9---1-1-8-9------------------
    E------------------------------------------12-12-12-12
    
                     _____________
    G----------------             |
    D----------------             |
    A-----8-9-------- x3          |
    E-6-6-----6-6-9-6             |
                                  | Played 3x After Bridge
    G-----------------            |
    D-----------------            |
    A-----8-9---------            |
    E-6-6-----9-8-7-6/____________|
    
       
                   
    G---15-10-11----------                    
    D-8-15-------8-8-11-8-                    
    A-------------------- x3                 
    E--------------------                    
                                             
                                             
    G-----10-11-----------
    D-8-8-------8-11-10-9-
    A---------------------
    E---------------------
     

    Тональность:

    Нет текста!



    Назад
    Рекомендуем посмотреть другие песни исполнителя «Primus»:

    • Комментарии Facebook ()
    • Комментарии ВКонтакте



    Добавить в Избранное Браузера
    Сохранить здесь Очистить


    x

    0


    +
    -

    +
    -

    -

    Авторизация





    Зарегистрироваться

    M

    Дата и время

    • 03:08:49
       

    Социальные ссылки


    Наши приложения

    • Muzbank App Play Market
    • Muzbank Amazon App