MUZBANK



A Most Complete Bank Of Music Information

МУЗЫКАЛЬНО-ИНФОРМАЦИОННЫЙ БАНК

Поиск по сайту







    PProcol Harum • Dog (аккорды и текст - chords & lyrics)


    285

    Print

    Видео «Dog (Procol Harum)»

    Видео клипы к песне подбираются автоматически сайтом youtube. Возможны некоторые несоответствия клипов песне.

    ↑ Спрятать рекламу ↑



    Download


    | | | | | | | |
    |--------------------------------|--------------------------------|
    |--------------------------------|--------------------------------|
    |----------------------------3---|4-------------------------------|
    |--------------------------------|--------------------------------|
    
    | | | | | | | |
    |--------------------------------|--------------------------------|
    |--------------------------------|--------------------------------|
    |3-------------------------------|3-------------------------------|
    |--------------------------------|--------------------------------|
    
    | | | | | | | |
    |--------------------------------|1-----------------------0-------|
    |--------------------------------|--------------------------------|
    |1-------------------------------|--------------------------------|
    |--------------------------------|--------------------------------|
    
    | | | | | | | |
    |--------------------------------|--------------------------------|
    |3-----------------------1-------|----------------------------1---|
    |--------------------------------|4-------------------------------|
    |--------------------------------|--------------------------------|
    
    | | | | | | | |
    |--------------------------------|--------------------------------|
    |2-------------------------------|4-------------------------------|
    |--------------------------------|--------------------------------|
    |--------------------------------|--------------------------------|
    
    | | | | | | | |
    |--------------------------------|4---------------------------3---|
    |4-------------------------------|------------------------4-------|
    |--------------------------------|--------------------------------|
    |--------------------------------|--------------------------------|
    
    | | | | | | | |
    |4-----------------------4-------|--------------------------------|
    |----------------------------4---|2-----------------------2---4---|
    |--------------------------------|--------------------------------|
    |--------------------------------|--------------------------------|
    
    | | | | | | | |
    |0-------------------------------|--------------------------------|
    |--------------------------------|4-------------------------------|
    |--------------------------------|--------------------------------|
    |--------------------------------|--------------------------------|
    
    | | | | | | | |
    |--------------------------------|--------------------------------|
    |4-------------------------------|--------------------------------|
    |--------------------------------|2---------------2---2-----------|
    |--------------------------------|--------------------------------|
    
    | | | | | | | |
    |--------------------------------|4---------------4---4-----------|
    |4---------------4---4-------4---|--------------4---------4-------|
    |------------------------4-------|--------------------------------|
    |--------------------------------|--------------------------------|
    
    | | | | | | | |
    |--------------------------------|--------------------------------|
    |----------------------------1---|2---------------2---2-----------|
    |2---------------2-------2-------|--------------2-----------------|
    |--------------------------------|--------------------------------|
    
    | | | | | | | |
    |--------------------------------|--------------------------------|
    |2---------------2---2-----------|--------------------------------|
    |--------------------------------|------------------------2-------|
    |--------------------------------|--------------------------------|
    
    | | | | | | | |
    |--------------------------------|--------------------------------|
    |4-------------------------------|--------------------------------|
    |--------------------------------|--------------------------------|
    |--------------------------------|--------------------------------|
    
    | | | | | | | |
    |--------------------------------|--------------------------------|
    |--------------------------------|2---------------2---2-----------|
    |--------------------------------|--------------2-----------------|
    |--------------------------------|--------------------------------|
    
    | | | | | | | |
    |--------------------------------|2-------------------------------|
    |--------------------------------|--------------------------------|
    |--------------------------------|--------------------------------|
    |--------------------------------|--------------------------------|
    

    Тональность:

    Нет текста!



    Назад
    Рекомендуем посмотреть другие песни исполнителя «Procol Harum»:

    • Комментарии Facebook ()
    • Комментарии ВКонтакте



    Добавить в Избранное Браузера
    Сохранить здесь Очистить


    x

    0


    +
    -

    +
    -

    -

    Авторизация





    Зарегистрироваться

    M

    Дата и время

    • 19:40:09
       

    Социальные ссылки


    Наши приложения

    • Muzbank App Play Market
    • Muzbank Amazon App