MUZBANK



A Most Complete Bank Of Music Information

МУЗЫКАЛЬНО-ИНФОРМАЦИОННЫЙ БАНК

Поиск по сайту







    PProject 86 • One Armed Man (аккорды и текст - chords & lyrics)


    245

    Print

    Видео «One Armed Man (Project 86)»

    Видео клипы к песне подбираются автоматически сайтом youtube. Возможны некоторые несоответствия клипов песне.

    ↑ Спрятать рекламу ↑



    Download



     
    
    
    Song: One Armed Man ( Play On )
    Artist: Project 86
    Album: Drawing Black Lines
    Tabbed By: Tommy ( punk4christ73@aol.com )
    
    Drop D tuning.
    
    Intro/Verse
    
    G|---------------------------------
    D|---------------------------------
    A|---------------------------------
    D|-O-2-0-2-033-455--0-2-0-2-455-200
    
    chorus
    G|--------------------------------------
    D|--------------------------------------
    A|--------------------------------------
    D|-5-5-5-5-7-7-7-7-4-2-h4-2-h4-2-h4-2-h4
    
    Bridge
    G|---------------------------------
    D|---------------------------------
    A|-----------------------------3-5~
    D|-0000000-2-3-2-3-0000000-2-3-----
                                        (last time)
    G|-------------------------------|-----------------
    D|-------------------------------|-----------------
    A|---------------------------3-5~|--3-----------3--
    D|-0-2-3-2-3-0000000-2-3-2-3-----|3---5-5-3-0-3---5
    then...          (end)
    G|--------------|----
    D|--------------|----
    A|-0-3----------|-5-5
    D|-----0-3-5-3-0|----
     

    Тональность:

    Нет текста!



    Назад
    Рекомендуем посмотреть другие песни исполнителя «Project 86»:

    • Комментарии Facebook ()
    • Комментарии ВКонтакте



    Добавить в Избранное Браузера
    Сохранить здесь Очистить


    x

    0


    +
    -

    +
    -

    -

    Авторизация





    Зарегистрироваться

    M

    Дата и время

    • 15:02:34
       

    Социальные ссылки


    Наши приложения

    • Muzbank App Play Market
    • Muzbank Amazon App