MUZBANK



A Most Complete Bank Of Music Information

МУЗЫКАЛЬНО-ИНФОРМАЦИОННЫЙ БАНК

Поиск по сайту







    PPrologos • Да, я из тех (аккорды и текст - chords & lyrics)


    314

    Print

    Видео «Да, я из тех (Prologos)»

    Видео клипы к песне подбираются автоматически сайтом youtube. Возможны некоторые несоответствия клипов песне.

    ↑ Спрятать рекламу ↑



    Download


    [Вступление]
    
         E  E  E  E  E  E      E   E  E  E  E  E     E  E  E  E  E  E   
    E||-----------0--------|---1---------0--------|-----------0--------|
    B||--------3-----3-----|-------3--------3-----|--------3-----3-----|
    G||-----2-----------2--|----------2--------2--|-----2-----------2--|
    D||--0-----------------|--(0)-----------------|--3-----------------|
    A||--------------------|----------------------|--------------------|
    E||--------------------|----------------------|--------------------|
    
    
       E   E  E  E  E  E     E  E  E  E  E  E      E   E  E  E  E  E   
    ---1---------0--------|-----------0--------|---1---------0--------|
    -------3--------3-----|--------3-----3-----|-------3--------3-----|
    ----------2--------2--|-----2-----------2--|----------2--------2--|
    --(3)-----------------|--0-----------------|--(0)-----------------|
    ----------------------|--------------------|----------------------|
    ----------------------|--------------------|----------------------|
    
    [Куплет]
    
    
        Да яиз тех кому жить надоело, но все еще жив,                          потом
        E                                             E  S S E  E  E  E  E  E  S    
    |-------------------------------------------------3------3-----3--------3-------
    |-------------------------------------------------3--3-3-3--3--3--3--3--3--3----
    |*--0---------------------------------------------3--3-3-3--5--5--5--3--3--3----
    |*--0---------------------------------------------5--5-5-5--5--5--5--5--5--5----
    |---0---------------------------------------------5--5-5-5--5--5--5--5--5--5----
    |-------------------------------------------------3--3-3-3--3--3--3--3--3--3----
    
    
                          , одним из кусков я до вены достану                   
      E  E  S S E  S S E  E                                   E  E  E  E  E     
    -----1--1-1-1------1--------------------------------------1--1--1--1--1---||
    -----1--3-3-1--3-3-3--3-----------------------------------3--3--3--1--1---||
    --0--3--3-3-3--3-3-3--3-----------------------------------3--3--3--3--3--*||
    --0--3--3-3-3--3-3-3--3-----------------------------------3--3--3--3--3--*||
    --0--1--1-1-1--1-1-1--1-----------------------------------1--1--1--1--1---||
    --------------------------------------------------------------------------||
    
    
           И пусть все они                             
      F                                                
      ^                                                
      Q    E               E  E  E  E  E  E  E  E  E   
    --1-----------------------1--------1--------1-----|
    --1----1---------------------1--------1--------1--|
    --2--------------------2--------2--------2--------|
    --3-----------------------------------------------|
    --0-----------------------------------------------|
    --1-----------------------------------------------|
    
    
           будут жалеть,                             
      Dm                                             
      ^                                              
      Q    E             E  E  E  E  E  E  E  E  E   
    --1---------------------1--------1--------1-----|
    --3----3-------------------3--------3--------3--|
    --2------------------2--------2--------2--------|
    --0---------------------------------------------|
    ------------------------------------------------|
    ------------------------------------------------|
    
    
           что я позволил                             
      F                                               
      ^                                               
      Q    E              E  E  E  E  E  E  E  E  E   
    --1----------------------1--------1--------1-----|
    --1----1--------------------1--------1--------1--|
    --2-------------------2--------2--------2--------|
    --3----------------------------------------------|
    --0----------------------------------------------|
    --1----------------------------------------------|
    
    
           себе умереть.                             
      Dm                                             
      ^                                              
      Q    E             E  E  E  E  E  E  E  E  E   
    --1---------------------1--------1--------1-----|
    --3----3-------------------3--------3--------3--|
    --2------------------2--------2--------2--------|
    --0---------------------------------------------|
    ------------------------------------------------|
    ------------------------------------------------|
    
    
    
    Да, я из тех кому жить надоело,
    Но все еще жив потому что несмелый.
    Битые стекла лежат под ногами,
    Одним из кусков я до вены достану.
    
    И пусть все они будут жалеть,
    Что я позволил себе умереть.
    
    Через столетия проносится крик 
    Душ убийц, и самоубийц,
    Этот крик и меня позвал 
    Перед тем как в горле застрял
    
    На столе на полу на холодной земле, 
    Я оставлю жизнь неважно где
    
    Мои пальцы все также ищут отравы
    Потому что глаза мои видеть устали
    Не смотри мне в глаза , а то тоже поймешь
    Чего я хочу, и со мною умрешь.
    
    Я останусь лежать на холодном снегу,
    Ты в глаза не смотри,а сотри мне слезу.
    
    
    
    [Соло на вступление:]
    
                                         E  E  E  E  E  E     E  E  E  E  E  E   
    E||-------|-------|-------|-------|--------------------|--------------------|
    B||-------|-------|-------|-------|--------------------|--------------------|
    G||-------|-------|-------|-------|--------------------|--------------------|
    D||-------|-------|-------|-------|--0--0-----0--0-----|--2--3-----2--3-----|
    A||-------|-------|-------|-------|--------------------|--------------------|
    E||-------|-------|-------|-------|--------------------|--------------------|
    
    
      E  E  E  E  E  E      E   E  E  E  E  E     E  E  E  E  E  E   
    --------------------|----------------------|--------------------|
    --------------------|----------------------|--------------------|
    --------------------|----------------------|--------------------|
    --0--0-----0--0-----|--11--12-----8--7-----|--0--0-----0--0-----|
    --------------------|----------------------|--------------------|
    --------------------|----------------------|--------------------|
    
    
      E  E  E  E  E  E     E  E  E  E  E  E      E   E  E   E   E  E   
    --------------------|--------------------|------------------------|
    --------------------|--------------------|------------------------|
    --------------------|--------------------|------------------------|
    --2--3-----2--3-----|--0--0-----0--0-----|--11--12-----12--10-----|
    --------------------|--------------------|------------------------|
    --------------------|--------------------|------------------------|
    
    
      Q    E  E  E  E  E  E  E  E  E  E     Q    E  E  E  E  E  E  E  E  E  E   
    -------------------------------------|-------------------------------------|
    --3----5--5--5--6--6--6--5--5--3--3--|--5----6--6--8--8--8--6--6--6--5--5--|
    -------------------------------------|-------------------------------------|
    -------------------------------------|-------------------------------------|
    -------------------------------------|-------------------------------------|
    -------------------------------------|-------------------------------------|
    
    
      Q    E  E  E  E  E  E  E  E  E  E     E  E  E  E  E  E  E  E  E  E  Q     
    -------------------------------------|--6--5-----5-------------------------|
    --3----5--5--5--6--6--6--5--5--3--3--|--------8-----8--6--8--6--5--5--3----|
    -------------------------------------|-------------------------------------|
    -------------------------------------|-------------------------------------|
    -------------------------------------|-------------------------------------|
    -------------------------------------|-------------------------------------|
    
    
    
    
    
    
    

    Тональность:

    Нет текста!



    Назад
    Рекомендуем посмотреть другие песни исполнителя «Prologos»:

    • Комментарии Facebook ()
    • Комментарии ВКонтакте



    Добавить в Избранное Браузера
    Сохранить здесь Очистить


    x

    0


    +
    -

    +
    -

    -

    Авторизация





    Зарегистрироваться

    M

    Дата и время

    • 09:11:57
       

    Социальные ссылки


    Наши приложения

    • Muzbank App Play Market
    • Muzbank Amazon App