MUZBANK



A Most Complete Bank Of Music Information

МУЗЫКАЛЬНО-ИНФОРМАЦИОННЫЙ БАНК

Поиск по сайту







    PPropagandhi • Anti Manifesto (аккорды и текст - chords & lyrics)


    243

    Print

    Видео «Anti Manifesto (Propagandhi)»

    Видео клипы к песне подбираются автоматически сайтом youtube. Возможны некоторые несоответствия клипов песне.

    ↑ Спрятать рекламу ↑



    Download


     
    
    
    -----------------------------------------------------------------------------
                      ANTI-MANIFESTO   PROPAGANDHI   
    -----------------------------------------------------------------------------
    
    blythe@pathcom.com              > MEANS STRUM
    
    INTRO
    G]---------------------------]   [----------------]
    D]---------------------------]   [----------------]
    A]---------------------2-2-2-]x3 [---7---5--5-5-3-]
    E]-3-3-3-3-------3-3-3-------]   [-3---5----------]
    
    SKA PART
    G]-------------------------------------------------------------]
    D]-------------------------------------------------------------]
    A]-----2-3-5-3-2---7-7-7-7-7-5-3-5---3-5---3-5-5-5-5-5-5-5-5-3-]
    E]-3-3-----------3-----------------5-----5---------------------]
    
    NEXT PART              (on fourth time play this)
    G]----------------]   [-----------------------------]
    D]----------------]   [-----------------------------]
    A]---7---5--5-5-3-]x3 [---7----5>----7>----7>-3>-5>-]
    E]-3---5----------]   [-3---3>----0>----0>----------]
    
    verse
    G]--------------]
    D]--------------]
    A]-----------3>-]X3
    E]-3>-2-2-3>----]
    
    PART A
    G]--------------------]
    D]--------5-------7---]
    A]----3-3---3-5-5---5-]
    E]-5>-----------------]
    
    VERSE x4
    
    PART A
    
    BRIDGE
    G]----------------------------------]   [-12-------13-]
    D]----------------------4-----------]   [----13-------]
    A]-----2---3-3-2-3-5-5----5-3-3-3-2-]x8 [-------12----]
    E]-3-3---3--------------------------]   [ ------------]
    
    VERSEx2
    
    PART A x3
    
    BRIDGEx2
    
    VERSE#2
    G]--------------------]
    D]--------------------]
    A]-----------5>-7>-3>-]x4
    E]-3>-2-2-3>----------]
    
    OUTRO
    G]------------------]
    D]------------------]
    A]---7---5--5-5-3---]
    E]-3---5----------0-]
     

    Тональность:

    Нет текста!



    Назад
    Рекомендуем посмотреть другие песни исполнителя «Propagandhi»:

    • Комментарии Facebook ()
    • Комментарии ВКонтакте



    Добавить в Избранное Браузера
    Сохранить здесь Очистить


    x

    0


    +
    -

    +
    -

    -

    Авторизация





    Зарегистрироваться

    M

    Дата и время

    • 23:37:35
       

    Социальные ссылки


    Наши приложения

    • Muzbank App Play Market
    • Muzbank Amazon App