MUZBANK



A Most Complete Bank Of Music Information

МУЗЫКАЛЬНО-ИНФОРМАЦИОННЫЙ БАНК

Поиск по сайту







    PPropagandhi • Nailing Descartes To The Wall (аккорды и текст - chords & lyrics)


    226

    Print

    Видео «Nailing Descartes To The Wall (Propagandhi)»

    Видео клипы к песне подбираются автоматически сайтом youtube. Возможны некоторые несоответствия клипов песне.

    ↑ Спрятать рекламу ↑



    Download


     
    
    
    ---------------------------------------------------------------------------- 
    NAILING DESCARTES TO THE WALL - Propagandhi 
    ---------------------------------------------------------------------------- 
    
    > MEANS STRUM 
    
    VERSE 
    G|-----------------------------------| 
    D|-----------------------------------| 
    A|----------------5>-6>----5>-6>-----|x2 
    E|-3-3-5-6>-5>-3>-------3>-----------| 
    
    G|-----------------------------------| 
    D|-----------------------------------| 
    A|-6-----6---------------------------| 
    E|---3-3-----------------------------| 
    
    VERSE2 
    G|-----------------------------------| 
    D|-----------------------------------| 
    A|----------6>----------6>-----------| 
    E|-6>-5>-3>----6>-5>-3>----6>-5>-3-1-| 
    
    CHORUS 
    G|-----------------------------------| 
    D|----------5-5-5--------------------| 
    A|-6>-------------3-3-3-5-5-5--------|x3 
    E|----1>-3>--------------------------| 
    
    END 
    G|-----------------------------------| 
    D|-----------------------------------| 
    A|-6>-8>-----------------------------| 
    E|-------3-3-------------------------| 
    
    --------------------------------------------------------------------------
     

    Тональность:

    Нет текста!



    Назад
    Рекомендуем посмотреть другие песни исполнителя «Propagandhi»:

    • Комментарии Facebook ()
    • Комментарии ВКонтакте



    Добавить в Избранное Браузера
    Сохранить здесь Очистить


    x

    0


    +
    -

    +
    -

    -

    Авторизация





    Зарегистрироваться

    M

    Дата и время

    • 00:23:09
       

    Социальные ссылки


    Наши приложения

    • Muzbank App Play Market
    • Muzbank Amazon App