MUZBANK



A Most Complete Bank Of Music Information

МУЗЫКАЛЬНО-ИНФОРМАЦИОННЫЙ БАНК

Поиск по сайту







    PPropagandhi • Purina Hall Of Fame (аккорды и текст - chords & lyrics)


    756

    Print

    Видео «Purina Hall Of Fame (Propagandhi)»

    Видео клипы к песне подбираются автоматически сайтом youtube. Возможны некоторые несоответствия клипов песне.

    ↑ Спрятать рекламу ↑



    Download


     
    
    
    -------------------------------------------------------------------------------
    	     Purina Hall of Fame - Propagandhi
    -------------------------------------------------------------------------------
    
    By:Jens Zimmermann (Ganz_normaler_Wahnsinn@gmx.de)
    
    I tabbed only the parts without the solo.
    
    Intro:
    
    e|-----------------------------------------------------------------------------|
    B|-------------------------------10-----9-----------------------------x-10-----|
    G|-----------------------------9-----9--------------------------------x-9-----9|
    D|-4-4-4-4-6-7-4-6-7---4-4-4-7-----6--------4-4-4-4-6-7-4-6-7--4-x-7--x-7-7-7--|
    A|-4-4-4---------------4-4-4-------------7--4-4-4--------------4-x-7------7----|
    E|-2-2-2---------------2-2-2----------------2-2-2--------------2-x-5------5----|
    
    e|------------| This is the main Riff of the song.
    B|-10----9----| The rest is only modified (Verse).
    G|-----9------|
    D|---6-----6--|
    A|---------7--|
    E|---------0--|
    
    Verse:
    
    e|---------------------------------------------------------------------|
    B|--------------------------10-9~----------------------------x-10-9----|
    G|--------------------------9--9~----------------------------x-9--9----|
    D|-4-4-4-4-6-7-4-6-7--4-4-4-7--6-6--4-4-4-4-6-7-4-6-7--4-x-7-x-7--6-6--|
    A|-4-4-4--------------4-4-4------7--4-4-4--------------4-x-7--------7--|
    E|-2-2-2--------------2-2-2------0--2-2-2--------------2-x-5--------0--|
    
    Bridge:
    
    e|-----------------|
    B|---9-10-12-------|
    G|-6-8-9--11-11-6--|
    D|-6-6-7--9--11-6--|
    A|-4---------9--4--|
    E|-----------------|
    
    Bridge II:
    
    e|-------------|
    B|-------4-----| Just pick some notes.
    G|-----6---4-2-|
    D|---6-----4-2-|
    A|-4-------2-0-|
    E|-------------|
    
    Interlude:
    It`s just only the Cis and one time the A-chord
    
    e|-----------------------|
    B|---------------12------|
    G|-----6------11-----11--|
    D|---6---7--9--------11--|
    A|-4-----0-----------9---|
    E|-----------------------|
    
    Part before the solo:
    
    e|---------------------------------|
    B|------------7--------------------|
    G|-----6-9-6----9-6-9-6------------|
    D|---6------------------7-6-7-7-4--|
    A|-4------------------------7-7-4--|
    E|--------------------------5-4-2--|
    
    Fill in I:
    Is played in the bridge.
    
    e|--------------|
    B|--------------|
    G|--------------|
    D|--------------|
    A|-4-6-7-6-4----|
    E|-----------7--|
    
    Fill in II:
    Is played in Bridge II
    
    e|----------------|
    B|----------------|
    G|----------------|
    D|-16--14--13--14-|
    A|-0---0---0---0--|
    E|----------------|
    Corrections? Suggestions? Please mail me.
    
    ===============================================================================
     

    Тональность:

    Нет текста!



    Назад
    Рекомендуем посмотреть другие песни исполнителя «Propagandhi»:

    • Комментарии Facebook ()
    • Комментарии ВКонтакте



    Добавить в Избранное Браузера
    Сохранить здесь Очистить


    x

    0


    +
    -

    +
    -

    -

    Авторизация





    Зарегистрироваться

    M

    Дата и время

    • 17:36:19
       

    Социальные ссылки


    Наши приложения

    • Muzbank App Play Market
    • Muzbank Amazon App