MUZBANK



A Most Complete Bank Of Music Information

МУЗЫКАЛЬНО-ИНФОРМАЦИОННЫЙ БАНК

Поиск по сайту







    PPropagandhi • Showdown (аккорды и текст - chords & lyrics)


    221

    Print

    Видео «Showdown (Propagandhi)»

    Видео клипы к песне подбираются автоматически сайтом youtube. Возможны некоторые несоответствия клипов песне.

    ↑ Спрятать рекламу ↑



    Download



     
    
    
    ------------------------------------------------------------------------
                           SHOWDOWN      PROPAGANDHI
    ------------------------------------------------------------------------
    
    > MEANS STRUM
    
    INTRO
    G]-----------------------]
    D]-----------------------]
    A]-----------------5>-3>-]x4
    E]-3-3-3-0-0-0-3-0-------]
    
    CHORUS
    G]-------------------------------------]
    D]------------------------------3-5----]
    A]-----------5>-3>-----------5>-----3>-]x7
    E]-3>-0>-3-0-------3>-0>-3-0-----------]
    
    VERSE
    G]-------------------------------]
    D]-------------------------------]
    A]-------3>-5>-------------3>-5>-]
    E]-0>-3>-------5-5-3-0>-3>-------]
    
    PRE-CHORUS
    G]----------]
    D]----------]
    A]-10>-5>-3-]x4
    E]----------]
    
    CHORUS x6
    VERSE
    PRE-CHORUS
    CHORUS x5
    END
    G]------------]
    D]------------]
    A]-10>-5>-3---]
    E]----------3-]
    
    TABBED BY FUNKEL
     

    Тональность:

    Нет текста!



    Назад
    Рекомендуем посмотреть другие песни исполнителя «Propagandhi»:

    • Комментарии Facebook ()
    • Комментарии ВКонтакте



    Добавить в Избранное Браузера
    Сохранить здесь Очистить


    x

    0


    +
    -

    +
    -

    -

    Авторизация





    Зарегистрироваться

    M

    Дата и время

    • 07:09:59
       

    Социальные ссылки


    Наши приложения

    • Muzbank App Play Market
    • Muzbank Amazon App