MUZBANK



A Most Complete Bank Of Music Information

МУЗЫКАЛЬНО-ИНФОРМАЦИОННЫЙ БАНК

Поиск по сайту







    PPropagandhi • The State Lottery (аккорды и текст - chords & lyrics)


    224

    Print

    Видео «The State Lottery (Propagandhi)»

    Видео клипы к песне подбираются автоматически сайтом youtube. Возможны некоторые несоответствия клипов песне.

    ↑ Спрятать рекламу ↑



    Download


     
    
    
    --------------------------------------------------------------------------
    THE STATE LOTTERY - Propagandhi 
    ---------------------------------------------------------------------------
    
    >Means Strum 
    
    INTROx2 
    G]-----------------------------] 
    D]-----------------------------] 
    A]--5>-4-4-5>-4-4-5>-4-4-3>-4>-] 
    E]-----------------------------] 
    
    VERSEx2 
    G]------------] 
    D]------------] 
    A]-5>---------] 
    E]----8>-6>-8-] 
    
    VERSE2 
    G]--------------------] 
    D]--------------------] 
    A]-------1>-----3--4--] 
    E]-1>-3>----1>--------] 
    
    PRE-CHORUSx2 
    G]--------------------------] 
    D]--------------------------] 
    A]-5-------------1-----0--0-] 
    E]--------3-----------------] 
    
    CHORUSx4 
    G]------------------] 
    D]------------------] 
    A]-5-5-5-8----8>----] 
    E]---------6>----5>-] 
    
    OUTRO 
    G]--------------------------------------------] 
    D]--------------------------------------------] 
    A]-1>-3>-5>-1>-3>-5>-1>-3>-5>-1>-3>-5-5-3-3-5-] 
    E]--------------------------------------------] 
    
    ----------------------------------------------------------------------------
     

    Тональность:

    Нет текста!



    Назад
    Рекомендуем посмотреть другие песни исполнителя «Propagandhi»:

    • Комментарии Facebook ()
    • Комментарии ВКонтакте



    Добавить в Избранное Браузера
    Сохранить здесь Очистить


    x

    0


    +
    -

    +
    -

    -

    Авторизация





    Зарегистрироваться

    M

    Дата и время

    • 15:11:36
       

    Социальные ссылки


    Наши приложения

    • Muzbank App Play Market
    • Muzbank Amazon App