MUZBANK



A Most Complete Bank Of Music Information

МУЗЫКАЛЬНО-ИНФОРМАЦИОННЫЙ БАНК

Поиск по сайту







    PPropagandhi • True (аккорды и текст - chords & lyrics)


    179

    Print

    Видео «True (Propagandhi)»

    Видео клипы к песне подбираются автоматически сайтом youtube. Возможны некоторые несоответствия клипов песне.

    ↑ Спрятать рекламу ↑



    Download


     
    
    
    -----------------------------------------------------------------------------
                         TRUE   PROPAGANDHI
    -----------------------------------------------------------------------------
    
    blythe@pathcom.com              > MEANS STRUM
    
    PART A
    G]----------]   [-------]
    D]----------]   [-------]
    A]----------]x6 [-------]x3
    E]-9>-7>-5>-]   [-5>-4>-]
    
    PART B
    G]-----------------]
    D]-----------------]
    A]----7---7--7---7-]
    E]-2>---7------7---]
    
    PART A 
    
    G]--------------------]
    D]--------------------]
    A]----7-7-7-4-4-4-5---]
    E]-2>---------------7-]
    
    one more sunset.....
    G]----------------]
    D]----------------]
    A]----7---------7-]
    E]-9-----9--9-9---]
    
    PART A
    
    PART B
    
    OUTRO
    G]---------]
    D]---------]
    A]-------7-]
    E]-7-4-5---]
     

    Тональность:

    Нет текста!



    Назад
    Рекомендуем посмотреть другие песни исполнителя «Propagandhi»:

    • Комментарии Facebook ()
    • Комментарии ВКонтакте



    Добавить в Избранное Браузера
    Сохранить здесь Очистить


    x

    0


    +
    -

    +
    -

    -

    Авторизация





    Зарегистрироваться

    M

    Дата и время

    • 23:31:36
       

    Социальные ссылки


    Наши приложения

    • Muzbank App Play Market
    • Muzbank Amazon App