MUZBANK



A Most Complete Bank Of Music Information

МУЗЫКАЛЬНО-ИНФОРМАЦИОННЫЙ БАНК

Поиск по сайту







    PPuddle Of Mudd • Drift And Die (аккорды и текст - chords & lyrics)


    157

    Print

    Видео «Drift And Die (Puddle Of Mudd)»

    Видео клипы к песне подбираются автоматически сайтом youtube. Возможны некоторые несоответствия клипов песне.

    ↑ Спрятать рекламу ↑



    Download



     
    
    
    Puddle Of Mudd
               Drift And Die
             Tuning = Eb Ab Db Gb Bb Eb
    
              /=Slide Easy Enough?
    
         ---1-0-0--
         ---3-3-3--
         ---2-2---- Intro/Verse Listen to the damn 
         -------2-- song and figure out the rythm.
         -------3-- Put it this way, im too lazy to 
         ---------- figure it out for you.
    
         ---------------
         ---------------
         ---7-5-4-3/5--- Chorus Same thing find out your
         ---7-3-2-3/3--- own rythm for this. I happen to 
         ---5-3-2-1/3--- suffer from l.s Lazy Syndrome.
         ---------------
    
         -----------------------------
         -----------------------------
         ---7/5/7--------------------- Solo part
         ---5/3/5---------------------
         ---5/3/5-----3---3-5-5-5-5---
         ---------1-3---3-------------
    
         
         --------------------------
         ---7-5-4-3/5----------7---
         ---7-3-2-3/3---End-on-5---
         ---5-3-2-1/3----------5---
         --------------------------
     

    Тональность:

    Нет текста!



    Назад
    Рекомендуем посмотреть другие песни исполнителя «Puddle Of Mudd»:

    • Комментарии Facebook ()
    • Комментарии ВКонтакте



    Добавить в Избранное Браузера
    Сохранить здесь Очистить


    x

    0


    +
    -

    +
    -

    -

    Авторизация





    Зарегистрироваться

    M

    Дата и время

    • 03:36:41
       

    Социальные ссылки


    Наши приложения

    • Muzbank App Play Market
    • Muzbank Amazon App