MUZBANK



A Most Complete Bank Of Music Information

МУЗЫКАЛЬНО-ИНФОРМАЦИОННЫЙ БАНК

Поиск по сайту







    QQbo • No Mas (аккорды и текст - chords & lyrics)


    197

    Print

    Видео «No Mas (Qbo)»

    Видео клипы к песне подбираются автоматически сайтом youtube. Возможны некоторые несоответствия клипов песне.

    ↑ Спрятать рекламу ↑



    Download



     
    
    
    Esta rola se la dedico al 3B de la secu Elodia Ramos
    
    Intro
    PM............       ............
    e---------------------------------------
    E---------------------------------------
    G-4444-44-4444-------4444-44-4444-------
    D-4444-44-4444-8h7-8-4444-44-4444-------
    A-2222-22-2222-------2222-22-2222-------
    E---------------------------------------
    
    Verso
    e--10------9---5---2--------------------
    B------------------------33-------------
    G---------------------------------------
    D---------------------------------------
    A---------------------------------------
    E---------------------------------------
    
    Coro
    e---------------------------------------
    B------[3]------[3]-----[3]-------------
    G------[3]-5555-[3]-----[3]-7777--------
    D----------5555----5555-----7777--------
    A-7777-----3333----5555-----5555--------
    E-7777-------------3333-----------------
    
    Interlude
    Pm.....................................
    e---------------------------------------
    B---------------------------------------
    G---------------------------------------
    D-2222-22-2222-----2222-22-2222---------
    A-2222-22-2222-2/5-2222-22-2222---------
    E-0000-00-0000-----0000-00-0000--/10----
    
    
     

    Тональность:

    Нет текста!



    Назад
    Рекомендуем посмотреть другие песни исполнителя «Qbo»:

    • Комментарии Facebook ()
    • Комментарии ВКонтакте



    Добавить в Избранное Браузера
    Сохранить здесь Очистить


    x

    0


    +
    -

    +
    -

    -

    Авторизация





    Зарегистрироваться

    M

    Дата и время

    • 21:25:05
       

    Социальные ссылки


    Наши приложения

    • Muzbank App Play Market
    • Muzbank Amazon App