MUZBANK



A Most Complete Bank Of Music Information

МУЗЫКАЛЬНО-ИНФОРМАЦИОННЫЙ БАНК

Поиск по сайту







    QQueen • Bohemian Rhapsody (аккорды и текст - chords & lyrics)


    423

    Print

    Видео «Bohemian Rhapsody (Queen)»

    Видео клипы к песне подбираются автоматически сайтом youtube. Возможны некоторые несоответствия клипов песне.

    ↑ Спрятать рекламу ↑



    Download



    Gm
    Open your eyes
         Bb                    Eb
    Look up to the skies and see
    Cm(7)                 F
    I`m just a poor boy, I need no sympathy
    B    Bb     A   Bb   B     Bb    A      Bb
    easy come, eays go, little high, little low       (bass enters)
    Eb             Bb/D        C#dim            F7/C      F7/Eb  Bb
    Any way the wind blows, doesn`t realy matter to me     to me.
    
    Bb                 Gm
    Mama   just killed a man
           Cm                              Cm7                F
    put a gun against his head, pulled my trigger, now he`s dead
    Bb               Gm              Cm
    Mama  life had just begun, but now
                   G+5/B   Eb/Bb    Adim
    I`ve gone and thrown it all away
    Eb   Bb/D           Fm        C/E Ab/Eb
    Mama Oooo  didn`t mean to make you cry,
     Ddim    Bb          Bb6   Bb7
    if I`m not back again this time
         Eb
    tomarrow,
          Bb/D    Cm             Abm   Eb Ab/Eb Eb Cdim Bb7sus4b9 Bb
    Carry on, carry on as if nothing really matters.
                           Gm
    Too late, my time has come
          Cm                    Cm7                      F
    Sent shivers down my spine, body`s achin` all the time,
    Bb                      Gm
    Goodbye everybody, I`ve got to go,
            Cm              G+5/B     Eb/Bb  Adim    Abmaj7   Eb/G
    Gotta leave you all behind and face the truth.
    Eb    Bb/D Cm  Fm       C/E Ab/Eb
    Mama Ooo     I don`t want to die,
    Ddim  Bb          Bb6          Bb7
    I sometimes wish I`d never been born at all.
    
    (guitar solo)
    
    E|------------------------------------------------------|
    B|---------------------------11vvvvv---8--11>(12)vvvvvv-|
    G|-----------10>(12)==>10>8-----------------------------|
    D|-8vvvvvv----------------------------------------------|
    A|------------------------------------------------------|
    E|------------------------------------------------------|
    
    E|---------------------------------------------------|
    B|-13vvvv--15-16-13vvv--15--16--16>(18)vvvvvv>16-13--|
    G|---------------------------------------------------|
    D|---------------------------------------------------|
    A|---------------------------------------------------|
    E|---------------------------------------------------|
    
    E|13-15-16-18-18>(20)vvvv-|
    B|------------------------|
    G|------------------------|
    D|------------------------|
    A|------------------------|
    E|------------------------|
    
    E|-1816-16-15-18-15>16>15---15---------------------------------|
    B|------------------------18---18-16-15-16-15>16>15----15------|
    G|--------------------------------------------------17----17-15|
    D|-------------------------------------------------------------|
    A|-------------------------------------------------------------|
    E|-------------------------------------------------------------|
    
    E|----------------15-16-18vvvv(18)---------------15-16-18-20vv-|
    B|-------15-16-18------------------------15-16-18--------------|
    G|-15-17---------------------------15-17-----------------------|
    D|-------------------------------------------------------------|
    A|-------------------------------------------------------------|
    E|-------------------------------------------------------------|
    
    E|-------------------------------------------------------------|
    B|-15-16-13vvvv-15-16-13vvv-15-16-16>(18)vvvvvv----------------|
    G|----------------------------------------------10-12--12>(13)-|
    D|-------------------------------------------------------------|
    A|-------------------------------------------------------------|
    E|-------------------------------------------------------------|
    
    E|--13---------------------------------------------------------|
    B|-----------------14---14-14-14-14vvvv-147--------------------|
    G|-----13vvvvvvv--------------------------------6--6vvvvv------|
    D|-----------------------------------------------------------7-|
    A|-------------------------------------------------------------|
    E|-------------------------------------------------------------|
    
    D/A  A Adim     A        D/A   A     Adim
    I  see  a little  silhouetto  of  a  man
    A     D/A  A    D/A  A         Adim      A  D/A  A
    Scarmouch  Scarmouch  will  you  do  the  fandango?
    C#/G#    G#       C#/G#   G#      C/G         E7          A
    Thunder  bolts  and  lightening  very  very  frightening  me
                              N.C.
    Galileo  Galileo Galileo Galileofigaro Mangnifico oh oh oh
    B    Bb        A    Bb   B    Bb   A    Bb
    I`m  just  a  poor  boy  nobody  loves  me
    Ab/Eb   Eb     Ebdim Eb    Ab/Eb   Eb   Ebdim   Eb
    He`s  just  a  poor  boy,  from  a  poor  family
    Ab                  Eb/G            F7       Bb
    spare  him  his  life  from  this  monstrosity
    
    Ab/Eb  Eb  Cdim  Bb7sus4b9
    
    B      Bb     A    Bb   B            Bb         Bbdim
    Easy  come  easy  go  will  you  let  me  go?
     Bb5  Eb Bb5 Eb Bbsus4  Bb     Bbsus4   Bb
    Bismillah   NO,  we  will  not  let  you  go
    
    Let  him  go
    Bb  Eb Bb           Bbsus4  Bb Bbsus4 Bb
    Bismillah  we  will  not  let  you  go      Let  him  go
    Bb  Eb Bb           Bbsus4  Bb Bbsus4 Bb
    bismillah  we  will  not  let  you  go      Let  me   go
    Bbsus4 Bb Bbsus4 Bb                     Bbsus4 Bb Bbsus4 Bb
    will  not  let  you  go   let  me  go   will  not  let  you  go
    
    let  me  go oh  oh  oh  oh oh
       A5   D   Db  Gb Bb5 Eb5
    no  no  no  no  no  no  no
                         Eb Ab Eb N.C.  Bb
    Oh mamamia mamamia  mamamia  let  me  go
      Eb    Ab        D7             Gm         Bb5
    Beelzebub  has  a  devil  put  aside  for  me   for  me  for me
    
    E|--------------------------------------------------|
    B|--------------------------------------------------|
    G|--------------------------------------------------|
    D|--------------------------------------------------|
    A|------------3---5---6---6-----------3-----------6-|
    E|-3---4---6----------------3---4---6----6vvvvvv----|
    
    E|-------------------------------------------------------------|
    B|-------------------------------------------------------------|
    G|--------------------------------------------------------8--8-|
    D|--------------------------------------------------8-----8--8-|
    A|------------3---5---6---8-----------5-------------8-----6--6-|
    E|-3---4---6----------------5---6---8----6----6-----6----------|
    
    E|-------------------------------------------------------------|
    B|-------------------------------------------------------------|
    G|----------------------------------6vvvvvvv0------------------|
    D|-8--83/8vvvv---6---8--6-------------------------8--------8---|
    A|-8------------------------8----4-----------------8-----------|
    E|-6-----------------------------------------------6---------0-|
    
    E|-------------------------------------------------------------|
    B|--------------------4----3------------3----------------------|
    G|--------------------5----3------------3----------------------|
    D|-3------------------6----5----3-------3--3>5---3-------------|
    A|-1--1/6--6--6--6>0--6----5----3-------1-----------5>3------3-|
    E|--------------------4----3----1--1>0--------------------1----|
    
    E|-------------------------------------------------------------|
    B|--3--3-------------------------------------------------------|
    G|--3--3---------------------------------------3-------------3-|
    D|--3--3-----------3-----5>3-------------------3-------------3-|
    A|--1--1---3--3/5-------------5---------------1-------------1--|
    E|---------------------------------1-----1>0---------1---------|
    
    E|------------------------------------------------------|
    B|------------------------------------------------------|
    G|------------------------------------------------------|
    D|------------------------------------------------------|
    A|-6---------------3---5---6---6-------------3----------|
    E|----3---4----6-------------------3---4---6----6vvvvvv-|
    
    E|-------------------------------------------------------------|
    B|-------------------------------------------------------------|
    G|--------------------------------------------------------5vvv-|
    D|-----------------------------------------6--8vvv--6--8-------|
    A|-6-------3-5--6--8-----------5--7--8--9----------------------|
    E|---3-4-6------------5--6--8----------------------------------|
    
    E|--------------------------------------------------|
    B|--------------------------------------------------|
    G|-----------5----6--------------------6----6--8--9-|
    D|--8vvvvv--------------------6---8--9----9---------|
    A|--------------------6>7--9------------------------|
    E|--------------------------------------------------|
    
    E|-------------------------------------------|
    B|-------------------------------------------|
    G|------------------------------------3vvvvv-|
    D|-----------------3--4--4>3---4---6---------|
    A|------3---4---6----------------------------|
    E|--4>6--------------------------------------|
    
    w/ harmonizer(8va basso)
    
    E|--------------------------------------------|
    B|--------------------------------------8---9-|
    G|---------7-------7---8---10---8---10--------|
    D|-8---10-----10------------------------------|
    A|--------------------------------------------|
    E|--------------------------------------------|
    
    hamonizer out. guitar tacet. piano fill.
    
    guitar
    
    E|-------------------------------------------------------------|
    B|-------8----11vvvvvvvvvvvv-------------11-----------8----139-|
    G|----8----------------------------7--10------------8----------|
    D|-8----------------------------8----------------10------------|
    A|-------------------------------------------------------------|
    E|-------------------------------------------------------------|
    
    E|-------------------------------------------------------------|
    B|-8---8---8-----9--8----6-----8>9---8------10>11---103--3vvvv-|
    G|-7---8---7----10--8----7-----8>10--8------10>12---117--7vvvv-|
    D|-------------------------------------------------------------|
    A|-------------------------------------------------------------|
    E|-------------------------------------------------------------|
    
    Cm               Gm       Cm        Gm
    Nothing really matters, anyone can see
    Cm               AbM     Ab/Bb                     Eb Ab/Eb  Eb
    nothing raelly matters,  nothing really matters to me
    
    Ebdim   Bb/D    Dbmaj13    C    Dbdim    C     F
    
    Bb     F      Fdim  C7sus4     F
    Any way the wind blows
    

    Тональность:

    Нет текста!



    Назад
    Рекомендуем посмотреть другие песни исполнителя «Queen»:

    • Комментарии Facebook ()
    • Комментарии ВКонтакте



    Добавить в Избранное Браузера
    Сохранить здесь Очистить


    x

    0


    +
    -

    +
    -

    -

    Авторизация





    Зарегистрироваться

    M

    Дата и время

    • 11:34:17
       

    Социальные ссылки


    Наши приложения

    • Muzbank App Play Market
    • Muzbank Amazon App