MUZBANK



A Most Complete Bank Of Music Information

МУЗЫКАЛЬНО-ИНФОРМАЦИОННЫЙ БАНК

Поиск по сайту







    QQueen • Dead On Time (аккорды и текст - chords & lyrics)


    209

    Print

    Видео «Dead On Time (Queen)»

    Видео клипы к песне подбираются автоматически сайтом youtube. Возможны некоторые несоответствия клипов песне.

    ↑ Спрятать рекламу ↑



    Download



     
    
    
    Queen: Dead On Time
     some riffs, and the solos
     
     |---------|---------|--------|
     |--7b8----|-12b13---|-15b16--|
     |--7b9----|-12b14---|-13b14--|
     |-10b11---|-11b12---|-15b16--|
     |-11b12---|-11b12---|-13b14--|
     |---------|---------|--------|
     
     ----------------------------------------------------|
     ----------------------------------------------------|
     ------------42b2---------------------------4542-----|
     --------------4-42-2-------42-2-2--------------42---|
     |-0---------------------------4-420------4---432020----------420|
     |--2-22-2202222-220222x------------2-20------------202----------|
     
     
     |----    Riff A   -----------------|
     -----------------------|
     ------------b5_r42-----|-0/--------|
     |----42-2-2---------242-------42---|-/0-...2---|
     |------4---432020---------------420|--------432|
     |2-2-------------2-2---------------|
     
     --------------------------------------------------------------------|
     |-2---2-------3p2--2---3p2--2---3p2---------------------------------------------|
     |-2---2-------2----2---2----2---2--------------------------b5_r42-----|-0/------------------|
     |-2---2-------4p2--2---4p2--2---4p2-----42-2-2---------242-------42---|-/0------242-2--3-4--|
     |-0---0-------0----0---0----0---0---------4---432020---------------432-4--------|
     ------------------------222-------------222---------------|---...222------------|
     
     A E A E A(sus4)
     A E(VII) D B A
     Riff A
     A E(VII) D B A#
     A E(VII) D   B   F#
     
     -------------------------------------------|
     -------------------------------------------|
     -------------------------------------------|
     -------------------------------------------|
     ------02-22-220------------02222-220-------|
     |-02222-220222220----------2222222|02-2222202222222---------2-22-22|
     
     -------------------------|
     -------------------------|
     -------------------------|
     -------------------------|
     ------|-2222-22-2222222-222---2222-2-|
     |-0222222202222222|2-------2-------2---2-2------2|
     
     solo1
     |-45424242----------------------------------------------------|
     |---------5252525252423232------------------------------------|
     --------------54242---2-----------2b--42--2-------|
     -------------------42---------2424--4---4---424---|
     ---------------------4-4303404--------------------|
     --------------------------------------------------|
     
     ---2-22-----------------4--------|
     |-252-25252-252--2-34-47--4-47--47-7-747-----|
     |----5-----5----------4--7-----7-4-----------|
     ---------------------------------|
     ---------------------------------|
     ---------------------------------|
     
     solo2
     ------|
     |-5252------------|
     |-----54242-------|
     |----------42-2-4-|
     -4----|
     ------|
     
     solo3
     -------------10-------------------11-------------------12-------------------13-------------------|
     |-8b10----10b12----13b15----13p10------14b16-----14p11------15b17-----15p12------16b18-----16p13------17b19--|
     ----------------------10-------------------11-------------------12-------------------13----------|
     -------------------------------------------------------------------------------------------------|
     -------------------------------------------------------------------------------------------------|
     -------------------------------------------------------------------------------------------------|
     
     Sorry about not using too much `pull off` and `hammer on` notations ...
     

    Тональность:

    Нет текста!



    Назад
    Рекомендуем посмотреть другие песни исполнителя «Queen»:

    • Комментарии Facebook ()
    • Комментарии ВКонтакте



    Добавить в Избранное Браузера
    Сохранить здесь Очистить


    x

    0


    +
    -

    +
    -

    -

    Авторизация





    Зарегистрироваться

    M

    Дата и время

    • 15:18:29
       

    Социальные ссылки


    Наши приложения

    • Muzbank App Play Market
    • Muzbank Amazon App