MUZBANK



A Most Complete Bank Of Music Information

МУЗЫКАЛЬНО-ИНФОРМАЦИОННЫЙ БАНК

Поиск по сайту







    QQueen • Doing All Right (аккорды и текст - chords & lyrics)


    292

    Print

    Видео «Doing All Right (Queen)»

    Видео клипы к песне подбираются автоматически сайтом youtube. Возможны некоторые несоответствия клипов песне.

    ↑ Спрятать рекламу ↑



    Download



     piano (right) arr for guitar
    E|-----0--------0--------0--------12---|----|
    B|-9-------10-------12-------10--------|----|
    G|-------------------------------------|-0/-|
    D|-9-------11-------13-------11--------|-/0-|
    A|-------------------------------------|----|
    E|---0---0----0---0----0---0----0----0-|-3X-|
    
    E|-----0--------0-------0-------0------------------------------|
    B|-9-------10-------9-------9--------9---9--9--7--7---7---5----|
    G|------------------7-------6--------9---9--9--8--8---8---6----|
    D|-9-------11-------9-------8--------9---9-----9--9---9---7----|
    A|-------------------------------------------------------------|
    E|---0---0----0---0---0---0---0---0------7----------7--------5-|
    
     clean eletric guitar (left)
    E|------------|--------------|-------------------------------*-|
    B|-12b14__r12-|--------------|-------------------------------*-|
    G|------------|-12-11-9----9-|--------9-13r11p9----11b13-b13-*-|
    D|------------|---------11---|------9-----------11-----------*-|
    A|------------|--------------|-9/11--------------------------*-|
    E|------------|--------------|-------------------------------*-|
    
    *----------------------|---------------------------------------|
    *-12-------------------|-12b14-12------------------------------|
    *----13r11-11p9------9-|----------11b13---13r11-9---8h9p8------|
    *---------------11p9---|----------------------------------9/11-|
    *----------------------|---------------------------------------|
    *----------------------|---------------------------------------|
    
    E|-------------------------------------------------------------|
    B|-------------------------------------------------------------|
    G|----------13r11---------13r11b13r11-b13---13r11p9------------|
    D|-(9b11r9)-----------------------------------------11---9-7-6-|
    A|-------------------------------------------------------------|
    E|-------------------------------------------------------------|
    
    E|---------------------------------------------|
    B|-------------------12----10--9-10-8h9p8------|
    G|-/9--------13r11p9----------------------11-9-|
    D|-------11------------------------------------|
    A|---------------------------------------------|
    E|---------------------------------------------|
    
     acoustic guitar
    E|-----------------------------------|
    B|---3--3-3-3--------33-3-3-3-----3--|
    G|--2-2-2-0-0-2--2--2-2-2-0-0----2---|
    D|-0------------2--0------------2----|
    A|----4-4-2-2--0------4-4-2-2-20-----|
    E|-----------------------------------|
    
    E|---------0-0-0-------22-------5----|
    B|---3------------2-------3-3-3----2-|
    G|--2--2-2-0-0--2-----2-2-2-0-0---2--|
    D|-0-------------2---0-----------2---|
    A|-----4-4-2-2-0--------4-4-2-2-0----|
    E|-----------------------------------|
    
    E|------------------------------------|
    B|---33-3-3-3-3--3------3-----2-------|
    G|--2-2-2-0-0-----------2-0-0----2----|
    D|-0------------2--0----------------2-|
    A|----4-4-2-2-0-------4-4-2-2--0---2--|
    E|---------------------------------0--|
    
    E|-4-4------0------4-4--------0----|
    B|-4-4-2-----0-----4-4-2-2--0------|
    G|-4-4-2------2----4-4-2-2------01-|
    D|--------2----2-2-----------2-2---|
    A|-----0---------2-----0-0---------|
    E|---------------0-----------------|
    
    E|---4-4--------0------------0--0-------------------|
    B|---4-4-----0-------3------2----3---3---2--2-------|
    G|-------2-2--2--------0-0----0--------0-----2------|
    D|-----2-------2--------0------2--------0--2--2---2-|
    A|-2-----0-0------101-----0-------101-----0---------|
    E|-0------------------------------------------------|
    
    E|-------------------------------------|
    B|---------------------3-3-3-3---------|
    G|----2-2-0-0-2--2-----2-2-0-0----2----|
    D|-0--0---------2---0--0-0-0-0-0-2--0--|
    A|----4-4-2-2--0-------4-4-2-2--0------|
    E|-------------------------------------|
    
    E|---------5---------------0----|
    B|-3-3---------------3-3-3----3-|
    G|-2-2-0-0----2----2-2-0-0------|
    D|-0-0-0-0---2--0--0-0-0-0---2--|
    A|-4-4-2-2--0------4-4-2-2-0----|
    E|------------------------------|
    
    E|--------------------|
    B|------------3--3-..-|
    G|----2-2-0-0-2----..-|
    D|-0--0-0-0-0---2--..-|
    A|----4-4-2-2-0----..-|
    E|-----------------..-|
    
     right and left guitar
     E(VII) B(VII) D(V) A(V)
     E(VII) B(VII) D(V) A(V)
     E(VII) B(VII) D(V) A(V)
     E(VII) B(VII) D(V) A(V) E(VII)
    
     E(VII) A(V) E(VII) B(VII) E(VII) A(V) E(VII) B(VII) E(VII)
     E(VII) A(V) E(VII) B(VII) E(VII) A(V) E(VII) B(VII) E(VII)
     E
    
     midle guitar
    E|-------------------------------------------|
    B|-------------------------------------------|
    G|-------------------------------------------|
    D|--------------------------5----------------|
    A|-7--------5-6-7------------7-------5-6-7---|
    E|-----7----------5----3p0-------7---------5-|
    
    E|-------------------------------------|
    B|-------------------------------------|
    G|-------------------------------12b---|
    D|-h14-12----12---14p12-14p12----------|
    A|--------14------------------14-------|
    E|-------------------------------------|
    
    E|------------------------------------|
    B|------------------------------------|
    G|----1414-12-----14b16-b16-b16---b16-|
    D|-14---------14----------------------|
    A|------------------------------------|
    E|------------------------------------|
    
    E|-------------------------------------|
    B|----------------------15b17---15b17--|
    G|-b16-b16-b16-b16-r14-----------------|
    D|-------------------------------------|
    A|-------------------------------------|
    E|-------------------------------------|
    
    E|----------------------------------------|
    B|------------b17---b17---b17---b17---b17-|
    G|------------------------b16---b16---b16-|
    D|-2p0h2..2p0-----------------------------|
    A|----------------------------------------|
    E|----------------------------------------|
    
    E|----------12-12----------12----------|
    B|-------12-------------12---1512------|
    G|-14b16----------14b16----------14b16-|
    D|-------------------------------------|
    A|-------------------------------------|
    E|-------------------------------------|
    
    E|----12-------------12------|
    B|-12---1512------12----1512-|
    G|----------14b16------------|
    D|---------------------------|
    A|---------------------------|
    E|---------------------------|
    
    E|----------12----12----------------|
    B|-------12----12----12-12-12-15b17-|
    G|-14b16----------------------------|
    D|----------------------------------|
    A|----------------------------------|
    E|----------------------------------|
    
     clean eletric guitar (left)
    E|----------------------------12---16r14b16r14-12--|
    B|-9h10p9..10p9---10--10/12------------------------|
    G|-------------------------------------------------|
    D|-------------------------------------------------|
    A|-------------------------------------------------|
    E|-------------------------------------------------|
    
    E|-19_____--------------|
    B|---21r19-17------17vv-|
    G|-------------18-------|
    D|----------------------|
    A|----------------------|
    E|----------------------|
    
    E|-----------------------------------------------------------|
    B|-----------------------------------------------------------|
    G|-18-18p16---16-18p16-18p16-18---16----13h16p13h16p13h16p13-|
    D|-----------------------------------------------------------|
    A|-----------------------------------------------------------|
    E|-----------------------------------------------------------|
    
    E|---------------------------------|----------------------|
    B|---------------------------------|----------------------|
    G|---------------------------------|----------------------|
    D|-18r16--14--18r16--(14)--16b18v--|-/14--/14--/14-----14-|
    A|---------------------------------|----------------16----|
    E|---------------------------------|----------------------|
    
     right and left guitar
     E(VII) B(VII) D(V) A(V)
     E(VII) B(VII) D(V) A(V)
    
     E(VII) B(VII) D(V) A(V)
     E(VII) B(VII) D(V) A(V)
     E(VII) B(VII) D(V) A(V)
     E(VII) B(VII) D(V) A(V) E(VII) (D(V))
    
     E(VII) A(V) E(VII) B(VII) E(VII) A(V) E(VII) B(VII) E(VII)
     E(VII) A(V) E(VII) B(VII) E(VII) A(V) E(VII) B(VII) E(VII)
     E
    
     midle guitar
    E|------------------------------------------|
    B|------------------------------------------|
    G|------------------------------------------|
    D|-------------------14p12----12---12-14p12-|
    A|-7-------5-6-7-7---------14---------------|
    E|-----7------------------------------------|
    
    E|-----------------------------------|
    B|-----------------------------------|
    G|---------16r14-12------------------|
    D|----14-----------------12-13-14----|
    A|-14---------------14------------12-|
    E|-----------------------------------|
    
    E|-----------------------------------------|
    B|-----------------------------------------|
    G|-----------------------------------------|
    D|-----------------------------------------|
    A|-10--------------------------------------|
    E|----12-12-12---12-12-12-12-12-12-12-12---|
    
    E|----------------------------12-------|
    B|-------------------------12----15b17-|
    G|-----------9-11b13v_/13--------------|
    D|------9-11---------------------------|
    A|-5/10--------------------------------|
    E|-------------------------------------|
    
    E|-------12-12-12-12-12-12----15b17-b17---b17---b17---17r15p13-|
    B|-------------------------------------------------------------|
    G|-14b16------------------(0)----------------------------------|
    D|-------------------------------------------------------------|
    A|-------------------------------------------------------------|
    E|-------------------------------------------------------------|
    
    E|-b21---19v--17-16-16---------------21r19---------------------|
    B|--------------------19-17-21r19p17------(17)-17---17---17-17-|
    G|-------------------------------------------------------------|
    D|-------------------------------------------------------------|
    A|-------------------------------------------------------------|
    E|-------------------------------------------------------------|
    
    E|-----------------------------------------------------------|
    B|-21r19p17-17------17---------------------------------------|
    G|---------------18----------14b16---14--13--11--------------|
    D|-------------------------------------------------13--13p11-|
    A|-----------------------------------------------------------|
    E|-----------------------------------------------------------|
    
     the vocal
    E|-------------------------------|
    B|-12-10-9--9--9--9--10-12-12-12-|
    G|-13-11-9--9--9--11-11-11-11-13-|
    D|-14-11-9--9--11-11-11-13-14-14-|
    A|-------------------------------|
    E|-------------------------------|
    

    Тональность:

    Нет текста!



    Назад
    Рекомендуем посмотреть другие песни исполнителя «Queen»:

    • Комментарии Facebook ()
    • Комментарии ВКонтакте



    Добавить в Избранное Браузера
    Сохранить здесь Очистить


    x

    0


    +
    -

    +
    -

    -

    Авторизация





    Зарегистрироваться

    M

    Дата и время

    • 23:42:19
       

    Социальные ссылки


    Наши приложения

    • Muzbank App Play Market
    • Muzbank Amazon App