MUZBANK



A Most Complete Bank Of Music Information

МУЗЫКАЛЬНО-ИНФОРМАЦИОННЫЙ БАНК

Поиск по сайту







    QQueen • Fall (аккорды и текст - chords & lyrics)


    280

    Print

    Видео «Fall (Queen)»

    Видео клипы к песне подбираются автоматически сайтом youtube. Возможны некоторые несоответствия клипов песне.

    ↑ Спрятать рекламу ↑



    Download



     solo
    E|-19-19-17-16---------------19b21---19-17-16-------|
    B|-------------19-17-16-----------------------19-17-|
    G|--------------------------------------------------|
    D|--------------------------------------------------|
    A|--------------------------------------------------|
    E|--------------------------------------------------|
    
    E|-17b19----r17---17--17--17p16-17p16-----------------|
    B|------------------------------------19p17-19p17-----|
    G|------------------------------------------------19v-|
    D|----------------------------------------------------|
    A|----------------------------------------------------|
    E|----------------------------------------------------|
    
    E|--------------|
    B|--------------|
    G|--18-16-------|
    D|--------19vvv-|
    A|--------------|
    E|--------------|
    
    E|------------------------------------------------|
    B|-19r17p15------------17---19b21_r19p17----------|
    G|----------16vv--(0)--------------------19p16vvv-|
    D|------------------------------------------------|
    A|------------------------------------------------|
    E|------------------------------------------------|
    
    E|-----21b23___r21------|
    B|-----------------19vv-|
    G|--19------------------|
    D|----------------------|
    A|----------------------|
    E|----------------------|
    
    E|-17-17-17b19---17b19r17p15-19b21vv---17-19-19b20vvv-|
    B|----------------------------------------------------|
    G|----------------------------------------------------|
    D|----------------------------------------------------|
    A|----------------------------------------------------|
    E|----------------------------------------------------|
    
    E|---------------------------------------------|
    B|---------------------------------------------|
    G|-----------------------0-----0-2-0h2---0-2-3-|
    D|-0h2p0-----0-2-3-2h3-----2-3---------3-------|
    A|-------3-------------------------------------|
    E|---------------------------------------------|
    
    E|------------------------------|
    B|------------------------------|
    G|---2-3-2h3-2p0-2--3--5--7p5h7-|
    D|------------------------------|
    A|------------------------------|
    E|------------------------------|
    
    E|------------------------------------------------|
    B|------------------------------______------------|
    G|-----5-7-8vv----7-8p7-8p7-5-7-8h10p8-10b12rbrp9-|
    D|-8----------------------------------------------|
    A|------------------------------------------------|
    E|------------------------------------------------|
    
    E|---------------------------|
    B|-----____------------------|
    G|10p9-10p9----------9-10-12-|
    D|----------12p10-12---------|
    A|---------------------------|
    E|---------------------------|
    
    E|-----------------------------------------|
    B|-------------------------13--15--15b17vv-|
    G|-14-12h14p12----12-14h15-----------------|
    D|-------------15--------------------------|
    A|-----------------------------------------|
    E|-----------------------------------------|
    
    E|-------------------------------------------------------------|
    B|-15-13-15p13-11h13-11-13-10-11-10p8-10p86-8-6-8-5-6-5--------|
    G|-------------------------------------------------------7---6-|
    D|-------------------------------------------------------------|
    A|-------------------------------------------------------------|
    E|-------------------------------------------------------------|
    
    E|-------------------------------------12b14---12b14r12-10-|
    B|--------10--12b14r12p10-12-b14v--------------------------|
    G|-7-9-----------------------------------------------------|
    D|---------------------------------------------------------|
    A|---------------------------------------------------------|
    E|---------------------------------------------------------|
    
    E|-9-10-12----------------------------------|
    B|-----------10---12---b14_r12p10-b14---10v-|
    G|------------------------------------------|
    D|------------------------------------------|
    A|------------------------------------------|
    E|------------------------------------------|
    
    E|-17----16h17p16p14-----------------------------------|
    B|-----------------------17--15--14p15-17--------------|
    G|----------------------------------------14-16-16b18v-|
    D|-----------------------------------------------------|
    A|-----------------------------------------------------|
    E|-----------------------------------------------------|
    
    E|----------------------------------------------|
    B|---17b19---17brp14----------------------------|
    G|-------------------16-14p13-------------------|
    D|----------------------------16-14-12-11-------|
    A|----------------------------------------12-12-|
    E|----------------------------------------------|
    

    Тональность:

    Нет текста!



    Назад
    Рекомендуем посмотреть другие песни исполнителя «Queen»:

    • Комментарии Facebook ()
    • Комментарии ВКонтакте



    Добавить в Избранное Браузера
    Сохранить здесь Очистить


    x

    0


    +
    -

    +
    -

    -

    Авторизация





    Зарегистрироваться

    M

    Дата и время

    • 12:44:11
       

    Социальные ссылки


    Наши приложения

    • Muzbank App Play Market
    • Muzbank Amazon App