MUZBANK



A Most Complete Bank Of Music Information

МУЗЫКАЛЬНО-ИНФОРМАЦИОННЫЙ БАНК

Поиск по сайту







    QQueen • Miracle (аккорды и текст - chords & lyrics)


    411

    Print

    Видео «Miracle (Queen)»

    Видео клипы к песне подбираются автоматически сайтом youtube. Возможны некоторые несоответствия клипов песне.

    ↑ Спрятать рекламу ↑



    Download


     
    
    
    Miracle
    Queen
    Miracle
    
    |-17-16-17---b19vvr17p16-14-16--b17vvr16p14------------|
    |-------------------------------------------17---------|
    |----------------------------------------------16b18---|
    |------------------------------------------------------|
    |------------------------------------------------------|
    |------------------------------------------------------|
    
    |----------------------14-16--b17vv_r16-14-16--17--19--19b20vv---|
    |-------------17-14-17-------------------------------------------|
    |-16-16-16b18----------------------------------------------------|
    |----------------------------------------------------------------|
    |----------------------------------------------------------------|
    |----------------------------------------------------------------|
    
    -19--17--15--17b19___r17p15-17-------------15--17--17b19-----21b22---b22--21--
    -------------------------------17__---15-------------------------------------
    ------------------------------------------------------------------------------
    ------------------------------------------------------------------------------
    ------------------------------------------------------------------------------
    ------------------------------------------------------------------------------
    ..
    |-------------------------------------------------|
    |-12b14vvv-----------12b14___t15___p14r12p9-12v---|
    |-------------------------------------------------|
    |-----------x-x-8-x-------------------------------|
    |-----------x-x-x-10------------------------------|
    |-----------x-x-x-x-------------------------------|
    
    |------------------------------------------|
    |-9----------------------------------------|
    |-x-9-11--11b_13_t14v---11b__13_r11p911p9--|
    |------------------------------------------|
    |------------------------------------------|
    |------------------------------------------|
    
    -------------------------------------------------------------------------------
    12b__14-t14p12t14p11t14p10t14p9------------------------------------------------
    -------------------------------t14p12t14p11t14p9-------------------------------
    ------------------------------------------------t14p11t14p9t14-----------------
    --------------------------------------------------------------h11t14p10t14p9-7-
    -------------------------------------------------------------------------------
    
    |-x--------x---------x---------x-x---------|
    |-16b18----x-18b19---x-19b21---x-x-20b21---|
    |-x--------x-----------x-------x-x---------|
    |------------------------------------------|
    |------------------------------------------|
    |------------------------------------------|
    
    |----------------------|
    |18__12b14t15p14r12---|
    |----------------------|
    |----------------------|
    |----------------------|
    |----------------------|
    
    |----------------------------------------------------------------------------|
    |-12b14t15p14r12p9-12b14_t15__pr12p9-12b14t17__pr12p9h12b14_t18b_b19r18rp12v-|
    |----------------------------------------------------------------------------|
    |----------------------------------------------------------------------------|
    |----------------------------------------------------------------------------|
    |----------------------------------------------------------------------------|
    
    |-------------------------------------|
    |-9-----------------------------------|
    |---12-11-9---------------------------|
    |-----------11-9----------------------|
    |-----------------11-10-9-7---7-------|
    |---------------------------9---9-7v--|
     

    Тональность:

    Нет текста!



    Назад
    Рекомендуем посмотреть другие песни исполнителя «Queen»:

    • Комментарии Facebook ()
    • Комментарии ВКонтакте



    Добавить в Избранное Браузера
    Сохранить здесь Очистить


    x

    0


    +
    -

    +
    -

    -

    Авторизация





    Зарегистрироваться

    M

    Дата и время

    • 11:53:16
       

    Социальные ссылки


    Наши приложения

    • Muzbank App Play Market
    • Muzbank Amazon App