MUZBANK



A Most Complete Bank Of Music Information

МУЗЫКАЛЬНО-ИНФОРМАЦИОННЫЙ БАНК

Поиск по сайту







    QQueen • More Of That Jazz (аккорды и текст - chords & lyrics)


    221

    Print

    Видео «More Of That Jazz (Queen)»

    Видео клипы к песне подбираются автоматически сайтом youtube. Возможны некоторые несоответствия клипов песне.

    ↑ Спрятать рекламу ↑



    Download



     
    
    
    Queen: More of that jazz
     
     some riffs
     
     riff 1
     |-----0------0---------------------|
     |-------3---3--3------1------1-----|
     |---1------1--------3---3---3--3---|
     |-2-------2-------2--------2----2--|
     ----3---------3--------|
     -----------------------|
     
     riff 2
     --------|
     ----5---|
     ----5---|
     ----5---|
     ----3---|
     |-0--0--0-0---------|
     
     riff 3
     ------------------|
     ------------------|
     ------------------|
     ------------------|
     ------------------|
     |-12-0-11-0-10-0-9-0-0-7-8v---|
     
     riff 4
     ---------------------------------------------------------------|
     ---------------------------------------------------------------|
     ---------------------------------------------------------------|
     ---------------------------------------------------------------|
     ---------------------------------------------------------------|
     |-0---12-0-0-11-0-0-10-0-0-9-0-0-10-0-0---6-0-0-7-0-0-8-0-0-9-0-0-10-0-0---|
     
     ----------------------------------------------------------------|
     ----------------------------------------------------------------|
     ----------------------------------------------------------------|
     ----------------------------------------------------------------|
     ----------------------------------------------------------------|
     |-10-0-0-12-0-0-14-0-0-15-0-0-17-0-0---15-0-0-14-0-0-12-0-0-10-0-0-12-0-0---|
     
     E G# D# G
     E A C G6
     

    Тональность:

    Нет текста!



    Назад
    Рекомендуем посмотреть другие песни исполнителя «Queen»:

    • Комментарии Facebook ()
    • Комментарии ВКонтакте



    Добавить в Избранное Браузера
    Сохранить здесь Очистить


    x

    0


    +
    -

    +
    -

    -

    Авторизация





    Зарегистрироваться

    M

    Дата и время

    • 19:25:40
       

    Социальные ссылки


    Наши приложения

    • Muzbank App Play Market
    • Muzbank Amazon App