MUZBANK



A Most Complete Bank Of Music Information

МУЗЫКАЛЬНО-ИНФОРМАЦИОННЫЙ БАНК

Поиск по сайту







    QQueen • Waltz (аккорды и текст - chords & lyrics)


    293

    Print

    Видео «Waltz (Queen)»

    Видео клипы к песне подбираются автоматически сайтом youtube. Возможны некоторые несоответствия клипов песне.

    ↑ Спрятать рекламу ↑



    Download


    1st solo
    E|------------------------------------------------------------|
    B|----------------------------------5-6----8-10-8-10-11-13-15-|
    G|-13__12__10__5-----6h85-----7-------------10------------15--|
    D|------------------------------------------------------------|
    A|------------------------------------------------------------|
    E|------------------------------------------------------------|
    
    E|--------------------------------|
    B|--------------------------------|
    G|-15--------------------------13-|
    D|------13---------------12-15----|
    A|---------15-13-12-13------------|
    E|--------------------------------|
    
    E|--------------------------------------------|
    B|------------13---13-------------------------|
    G|--------------------15-14-15-12-------------|
    D|------12-15---------------------13----------|
    A|-*-13------------------------------15-13----|
    E|-----------------------------------------15-|
    
    2nd solo
    E|------------------------------------------------------------|
    B|-4--3434---3434/13-1313---11h13p11-9h11p9-8h9p8-6h8p6-------|
    G|------------------------------------------------------8-5-6-|
    D|------------------------------------------------------------|
    A|------------------------------------------------------------|
    E|------------------------------------------------------------|
    
    E|-------------------------------------------|
    B|-2--1212---1212/11-1111---9--8--6--5-------|
    G|---------------------------------------5-6-|
    D|-------------------------------------------|
    A|-------------------------------------------|
    E|-------------------------------------------|
    
    E|--------------------------------------13b15-13-|
    B|-4--3434---3434/13-1313---1413--131613---------|
    G|------------------------------16---------------|
    D|-----------------------------------------------|
    A|-----------------------------------------------|
    E|-----------------------------------------------|
    

    Тональность:

    Нет текста!



    Назад
    Рекомендуем посмотреть другие песни исполнителя «Queen»:

    • Комментарии Facebook ()
    • Комментарии ВКонтакте



    Добавить в Избранное Браузера
    Сохранить здесь Очистить


    x

    0


    +
    -

    +
    -

    -

    Авторизация





    Зарегистрироваться

    M

    Дата и время

    • 05:12:53
       

    Социальные ссылки


    Наши приложения

    • Muzbank App Play Market
    • Muzbank Amazon App