MUZBANK



A Most Complete Bank Of Music Information

МУЗЫКАЛЬНО-ИНФОРМАЦИОННЫЙ БАНК

Поиск по сайту







    QQueens Of The Stone Age • Regular John (аккорды и текст - chords & lyrics)


    273

    Print

    Видео «Regular John (Queens Of The Stone Age)»

    Видео клипы к песне подбираются автоматически сайтом youtube. Возможны некоторые несоответствия клипов песне.

    ↑ Спрятать рекламу ↑



    Download


     
    
    
    Tabber: Connor G.
    
      
      Violin
         e-----------------|
         B--11---4--10---15|
         G-----------------|
         D-----------------|x4
         A-----------------|
         E-----------------|
    
         e---------------------------------|
         B---------------------------------|
         G---------------------------------|
         D-55555555555555555555555555555555|x2
         A-33333333333333333333333333333333|
         E---------------------------------|
    
         e------------------|
         B------------------|
         G------------------|
         D-5555-888-5555-777|x4
         A-3333-666-3333-555|
         E------------------|
    
         e---------------------------------|
         B---------------------------------|
         G---------------------------------|
         D-55555555555555555555555555555555|x2
         A-33333333333333333333333333333333|
         E---------------------------------|
    
         e------------------|
         B------------------|
         G------------------|
         D-----------3333333|
         A-33-55-66--1111111|
         E-11-33-44---------|
    
         e---------------------------------|
         B---------------------------------|
         G---------------------------------|
         D-55555555555555555555555555555555|x1
         A-33333333333333333333333333333333|
         E---------------------------------|
    
         e------------------|
         B------------------|
         G------------------|
         D-----------3333333|
         A-33-55-66--1111111|
         E-11-33-44---------|
    
         e---------------------------------|
         B---------------------------------|
         G---------------------------------|
         D-55555555555555555555555555555555|x1
         A-33333333333333333333333333333333|
         E---------------------------------|
    
         e------------------|
         B------------------|
         G------------------|
         D-----------3333333|
         A-33-55-66--1111111|
         E-11-33-44---------|
    
         e---------------------------------|
         B---------------------------------|
         G---------------------------------|
         D-55555555555555555555555555555555|x1
         A-33333333333333333333333333333333|
         E---------------------------------|
    
         e------------------|
         B------------------|
         G------------------|
         D-----------3333333|
         A-33-55-66--1111111|
         E-11-33-44---------|
    
         e-----------------|
         B-----------------|
         G-----------------|
         D-88888888---5-555|
         A-66666666-8-3-333|
         E----------6------|
    
       solo
         e-----------------------------------------------------|
         B-----------------------------------------------------|
         G-----------------------------------------------------|
         D-----------------------------------------------------|
         A----------------------15-13-15-15/18-15/18---15-13-10|
         E--6-8-11-13--15-13-15--------------------------------|
    
         e------------------|
         B------------------|
         G------------------|
         D-5555-888-5555-777|x4
         A-3333-666-3333-555|
         E------------------|
    
         e---------------------------------|
         B---------------------------------|
         G---------------------------------|
         D-55555555555555555555555555555555|x2
         A-33333333333333333333333333333333|
         E---------------------------------|
    
         e------------------|
         B------------------|
         G------------------|
         D-----------3333333|
         A-33-55-66--1111111|
         E-11-33-44---------|
    
         e---------------------------------|
         B---------------------------------|
         G---------------------------------|
         D-55555555555555555555555555555555|x1
         A-33333333333333333333333333333333|
         E---------------------------------|
    
         e------------------|
         B------------------|
         G------------------|
         D-----------3333333|
         A-33-55-66--1111111|
         E-11-33-44---------|
    
         e---------------------------------|
         B---------------------------------|
         G---------------------------------|
         D-55555555555555555555555555555555|x1
         A-33333333333333333333333333333333|
         E---------------------------------|
    
         e------------------|
         B------------------|
         G------------------|
         D-----------3333333|
         A-33-55-66--1111111|
         E-11-33-44---------|
    
         e---------------------------------|
         B---------------------------------|
         G---------------------------------|
         D-55555555555555555555555555555555|x1
         A-33333333333333333333333333333333|
         E---------------------------------|
    
         e------------------|
         B------------------|
         G------------------|
         D-----------3333333|
         A-33-55-66--1111111|
         E-11-33-44---------|
    
         e-----------------|
         B-----------------|
         G-----------------|
         D-88888888---5-555|
         A-66666666-8-3-333|
         E----------6------|
    
     solo 2
         e------------------|
         B------------------|
         G-17/15-17/15-17/15|
         D------------------|
         A------------------|
         E------------------|
    
            vote!
     

    Тональность:

    Нет текста!



    Назад
    Рекомендуем посмотреть другие песни исполнителя «Queens Of The Stone Age»:

    • Комментарии Facebook ()
    • Комментарии ВКонтакте



    Добавить в Избранное Браузера
    Сохранить здесь Очистить


    x

    0


    +
    -

    +
    -

    -

    Авторизация





    Зарегистрироваться

    M

    Дата и время

    • 05:06:26
       

    Социальные ссылки


    Наши приложения

    • Muzbank App Play Market
    • Muzbank Amazon App