MUZBANK



A Most Complete Bank Of Music Information

МУЗЫКАЛЬНО-ИНФОРМАЦИОННЫЙ БАНК








    RRa • Do You Call My Name (аккорды и текст - chords & lyrics)


    229

    Print

    Видео «Do You Call My Name (Ra)»

    Видео клипы к песне подбираются автоматически сайтом youtube. Возможны некоторые несоответствия клипов песне.

    ↑ Спрятать рекламу ↑



    Download



     
    
    
    This tab is for the long version(the one with the long intro)
    This song is played in standard tuning (EADGBE)
    Any questions or comments email me...dabomb8422@rcn.com
    
    Palm Mute=........................
    
    
    Intro
                   3x                       Last time
    |---------00-0----------00--|-----00-0-------00-0------------|
    |-------0---0--0-------0----|---0---0-0-----0--0-0-----------|
    |-----4---------------4---3-|--4-----------4-----------------|
    |---2----------------2------|-2-----------3------------------|
    |---------------------------|--------------------------------|
    |---------------------------|--------------------------------|
    
    Heavy Part
                      2 or 3 x
    |-----------------------------------------------|
    |-----------------------------------------------|
    |-----------------------------------------------|
    |----------------------------------4-5----------|
    |----------------------------------2-3----------|
    |--1p0--4--1p0--456--1p0--4--1p0---2-3--1p0-----|
    
    
              Last Time
    |----------------------------------------------|
    |----------------------------------------------|
    |----------------------------------------------|
    |--------------------------------4-5-----------|
    |--------------------------------2-3-----5-8---|
    |-1p0--4--1p0--456--1p0--4--1p0--2-3--1--3-6---|
                          (Let last two chords ring)
    
    
    |------------------------------------------------|
    |------------------------------------------------|
    |-----12-12p11-11------11----12-12p11-11------11-|
    |------------------------------------------------|
    |------------------------------------------------|
    |--00-------------0000----00-------------0000----|
       ..             ....    ..             .... 
    
    
    |-------------------------------------------------|
    |-------------------------------------------------|
    |------10-10p9-9------9----10-10p9-9------9-------|
    |-------------------------------------------------|
    |-------------------------------------------------|
    |---00-----------0000---00-----------0000---------|
        ..           ....   ..           ....
    
    Verse
    
    |------------------------------||
    |------------------------------||
    |------------------------------||
    |-------------------------3----||
    |-------2-22-2------2-22--1----||
    |--1p0--0-00-0--3p0-0-00-------||
     
    
    Verse 2
    |------------------------------|
    |------------------------------|
    |------------------------------|
    |--5555--5555--4444------------|
    |--3333--3333--2222--2222--5---|
    |--------------------0000--3---|
    
    |-------------------------------|
    |-------------------------------|
    |-------------------------------|
    |-5555--5555--4444--------------|
    |-3333--3333--2222--2222222-2---|
    |-------------------0000000-0---|
                        ....... .
    Then you go back into Verse 2, and on the last time, play:
    
    |--------------------------------|
    |--------------------------------|
    |--------------------------------|
    |--5555--5555--4444--------------|
    |--3333--3333--2222--22222--2-5--|
    |--------------------00000--0-3--|
    
    At 2:46 you play:
    
    |------|
    |------|
    |------|
    |--4---|
    |--2---|
    |--2---|
    
    
    
    
    At 3:18:
    
    
    |------------------------------------|
    |---1--0---1---0----1---0----3--1----|
    |----2--2---2---2-2--2---2-------2---|
    |-2------2---2---2----2---2-------2--|
    |-0----------------------------------|
    |------------------------------------|
    
    |-------------------0---0---0---0----
    |---1--0---1---0-----3---3---3---3---
    |----2--2---2---2-----2---2---2---2--
    |-2------2---2---2-------------------
    |-0----------------------------------
    |------------------------------------
    
    
    ^^^^THiS iS the Am Chord
    
    Thats it...hope you enjoy :D
     

    Тональность:

    Нашли ошибку?



    Назад
    Рекомендуем посмотреть другие песни исполнителя «Ra»:

    • Комменты Fb ()
    • Комменты ВК



    Добавить в Избранное Браузера
    Сохранить здесь Очистить


    x

    0


    +
    -

    +
    -

    -

    Авторизация





    Зарегистрироваться

    M

    Дата и время

    • 23:54:52
       

    Социальные ссылки


    Наши приложения

    • Muzbank App Play Market
    • Muzbank Amazon App