MUZBANK



A Most Complete Bank Of Music Information

МУЗЫКАЛЬНО-ИНФОРМАЦИОННЫЙ БАНК








    RRa • Do You Call My Name (аккорды и текст - chords & lyrics)


    272

    Print

    Видео «Do You Call My Name (Ra)»

    Видео клипы к песне подбираются автоматически сайтом youtube. Возможны некоторые несоответствия клипов песне.

    ↑ Спрятать рекламу ↑






     
    
    
    This song is in drop D.
    
    
    e|------------------------------------------]
    b|------------------------------------------]
    g|------------------------------------------]
    d|------------------------------------------]
    a|-3-2-6--3-2-6-7-8---3-2-6--3-2-3-4-5------]
    D|-3-2-6--3-2-6-7-8---3-2-6--3-2-3-4-5------](repeat four times)
    
    e|------------------------]
    b|------8-8-7-7---------7-]
    g|------------------------]
    d|------5-5-4-4---------4-]
    a|-0-0----------0-0-0-0---]
    D|-0-0----------0-0-0-0---](play twice)
    
    e|-------------------------------
    b|------13-13-12-12-----------12-
    g|-------------------------------
    d|------10-10-9--9------------9--
    a|-0-0---------------0-0-0-0-----
    D|-0-0---------------0-0-0-0-----(play twice)
    
    And there is the intro for ya.
     

    Тональность:

    Нашли ошибку?



    Назад
    Рекомендуем посмотреть другие песни исполнителя «Ra»:

    • Комменты Fb ()
    • Комменты ВК



    Добавить в Избранное Браузера
    Сохранить здесь Очистить


    x

    0


    +
    -

    +
    -

    -

    Авторизация





    Зарегистрироваться

    M

    Дата и время

    • 23:14:41
       

    Социальные ссылки


    Наши приложения

    • Muzbank App Play Market
    • Muzbank Amazon App