MUZBANK



A Most Complete Bank Of Music Information

МУЗЫКАЛЬНО-ИНФОРМАЦИОННЫЙ БАНК

Поиск по сайту







    РРада и Терновник • Мы сегодня словно птицы (аккорды и текст - chords & lyrics)


    303

    Print

    Видео «Мы сегодня словно птицы (Рада и Терновник)»

    Видео клипы к песне подбираются автоматически сайтом youtube. Возможны некоторые несоответствия клипов песне.

    ↑ Спрятать рекламу ↑



    Download


    Fig.1
    E|--------------------------------|
    B|-----------0---------------0----|
    G|----2--------------2--------(2)-|
    D|---0-(0)-0---0----0-0----0------|
    A|--------------------------------|
    E|-3------3------3-------3--------|
    
    Fig.2
    E|------------------------------------|
    B|------------------------------------|
    G|----------------0--------------0----|
    D|-------4----------------4-----------|
    A|-----2---2----2---2---2---2--2--(2)-|
    E|---0---------0-------0------0-------|
    
    Fig 1
    Мы сегодня словно птицы
    Fig 2
    Мы сегодня отдыхаем
    Fig 1
    Соблюдаем все границы
    Fig 2
    Мы сегодня не летаем
    
    Мы сегодня словно кошки
    У нас нынче новоселье
    Спит в узорчатом лукошке
    Наше тихое веселье
    
    Мы сегодня пьем из кружки
    Золотистые расклады
    Мрачных нам вестей не надо
    Только мягкие игрушки
    
    У нас нынче будут гости
    Удивятся - их судьбина
    Будут долго разбираться
    Где начало, где причина
    Solo
    Мы останемся случайно
    На заре, как на вокзале
    Все куда-то разбежались
    В непонятное начало
    
    Мы смотрели долго в небо
    Оказалось небо ниже
    Нам сказали - это небыль
    Это быль - я так услышал
    
    Возвращались в ниоткуда
    Расплели смешные косы
    Задавали наудачу
    Судьбоносные вопросы
    
    А потом мы все исчезли
    Говоря, что на минутку
    Кто нас знает - догадался
    Это странная, но шутка
    

    Тональность:

    Нет текста!



    Назад
    Рекомендуем посмотреть другие песни исполнителя «Рада и Терновник»:

    • Комментарии Facebook ()
    • Комментарии ВКонтакте



    Добавить в Избранное Браузера
    Сохранить здесь Очистить


    x

    0


    +
    -

    +
    -

    -

    Авторизация





    Зарегистрироваться

    M

    Дата и время

    • 17:19:33
       

    Социальные ссылки


    Наши приложения

    • Muzbank App Play Market
    • Muzbank Amazon App