MUZBANK



A Most Complete Bank Of Music Information

МУЗЫКАЛЬНО-ИНФОРМАЦИОННЫЙ БАНК

Поиск по сайту







    RRage Against The Machine • Darkness Of Greed (аккорды и текст - chords & lyrics)


    200

    Print

    Видео «Darkness Of Greed (Rage Against The Machine)»

    Видео клипы к песне подбираются автоматически сайтом youtube. Возможны некоторые несоответствия клипов песне.

    ↑ Спрятать рекламу ↑



    Download


     
    
    
    
    bend with whammy bar
    e----------12-----------------
    b-------12-----12-------------
    g----11-------------11--(11)--
    d-12--------------------------
    a-----------------------------
    D-----------------------------
    
    e-------0---------------
    b-----7----7------------
    g---6----------6---(6)--
    d-7---------------------
    a-----------------------
    D-----------------------
    
    e---------------------------------
    b---------------------------------
    g-----------------------*-----*---
    d-0-2-x-x-x-x-3-2---x-2/12----12-
    a-0-2-x-x-x-x-3-2---x-2/12----12-
    D-0-2-x-x-x-x-3-2---x-2/12----12-
    
    e---------------------------------
    b---------------------------------
    g---------------------999-999-999-
    d-0-2-x-x-x-x-3-2---x-------------
    a-0-2-x-x-x-x-3-2---x-777-777-777-
    D-0-2-x-x-x-x-3-2---x-------------
    
    last time before solo
    e------------------------
    b------------------------
    g------------------------
    d-0-2-x-x-x-x-3-2---x-3--
    a-0-2-x-x-x-x-3-2---x-3--
    D-0-2-x-x-x-x-3-2---x-3--
    
    solo:
    part I:take a metal slide and hit it across the strings while moving it between pickups, also use your toggle switch (0,10)
    part II: take your hand and rub it across the thinner strings while depressing your whammy bar (you can kind of hear the low D string being depressed)
    part III:
    e-----14-15-14--------------------
    b--------------15-14-15-14-15-14~-
    g--16-----------------------------
    d---------------------------------
    a---------------------------------
    D---------------------------------
    
    e-----14-15-14--------------------
    b--------------15-14-15-17 17b19--
    g--16-----------------------------
    d---------------------------------
    a---------------------------------
    D---------------------------------
    
    e-17b19-17-15-14-15-17-15-14-----------------
    b----------------------------17-15-14--------
    g-------------------------------------16-14~-
    d--------------------------------------------
    a--------------------------------------------
    D--------------------------------------------
    
    e----------------14-15-17b19-17b19-
    b-------14-15-17-------------------
    g-14-16----------------------------
    d----------------------------------
    a----------------------------------
    D----------------------------------
    
    the fast part:(this is what i hear, i think its all correct)
    e-----17-16-15----16-15-14----15-14-13----14-13-12-14-13-12-
    b-/16----------15----------14----------13-------------------
    g-----------------------------------------------------------
    d-----------------------------------------------------------
    a-----------------------------------------------------------
    D-----------------------------------------------------------
    
    e----------------14-15-
    b-------14-15-17--------
    g-14-16-----------------
    d-----------------------
    a-----------------------
    D-----------------------
    
    e----------14-15-17--17b19-17-14-17--17b19-17-14-17-
    b-14-15-17------------------------------------------
    g---------------------------------------------------
    d---------------------------------------------------
    a---------------------------------------------------
    D---------------------------------------------------
    
    ending:
    e----------------------------------
    b17171717171717171717171717171717-
    g--------1616------1616------------
    d----------------------------------
    a----------------------------------
    D---------------------------------- 
     
    
     

    Тональность:

    Нет текста!



    Назад
    Рекомендуем посмотреть другие песни исполнителя «Rage Against The Machine»:

    • Комментарии Facebook ()
    • Комментарии ВКонтакте



    Добавить в Избранное Браузера
    Сохранить здесь Очистить


    x

    0


    +
    -

    +
    -

    -

    Авторизация





    Зарегистрироваться

    M

    Дата и время

    • 16:45:37
       

    Социальные ссылки


    Наши приложения

    • Muzbank App Play Market
    • Muzbank Amazon App