MUZBANK



A Most Complete Bank Of Music Information

МУЗЫКАЛЬНО-ИНФОРМАЦИОННЫЙ БАНК

Поиск по сайту







    RRage Against The Machine • Guerilla Radio (аккорды и текст - chords & lyrics)


    336

    Print

    Видео «Guerilla Radio (Rage Against The Machine)»

    Видео клипы к песне подбираются автоматически сайтом youtube. Возможны некоторые несоответствия клипов песне.

    ↑ Спрятать рекламу ↑



    Download


     
    
    
    Rage Against The Machine - Guerrilla Radio
    
    Tabbed By Stephen Pang (piequat@hotmail.com)
    
    Intro
    G|-----------------|
    D|-----------------|
    A|-----------------|
    E|-2-2-2-2-2-2-2-2-|
    
    Chorus
    G|-------------------|
    D|-------------------|
    A|---------------0-2-|
    E|-0-2-2-0-2-0-2-----|
    
    G|-2------1---------|
    D|------------------|
    A|------------------|
    E|---2--0---2--0-2--|
    Verse
    G|--2-2--4-4--5-5------|
    D|-----------------4--|
    A|---------------------|
    E|---------------------|
    
    Verse Variation
    G|--------------2-2--4-4--5-5------|
    D|-4-------4-4-----------------4--|
    A|---2-0---------------------------|
    E|-------2-------------------------|
    
    Chorus Variation
    G|-----------------------|
    D|---------------4-4-4-4-|
    A|-----------------------|
    E|-0-2-2-0-2-0-2---------|
    
    Outro
    G|----------|
    D|--------4-|
    A|----------|
    E|-0-2--0---|
     

    Тональность:

    Нет текста!



    Назад
    Рекомендуем посмотреть другие песни исполнителя «Rage Against The Machine»:

    • Комментарии Facebook ()
    • Комментарии ВКонтакте



    Добавить в Избранное Браузера
    Сохранить здесь Очистить


    x

    0


    +
    -

    +
    -

    -

    Авторизация





    Зарегистрироваться

    M

    Дата и время

    • 19:45:35
       

    Социальные ссылки


    Наши приложения

    • Muzbank App Play Market
    • Muzbank Amazon App