MUZBANK



A Most Complete Bank Of Music Information

МУЗЫКАЛЬНО-ИНФОРМАЦИОННЫЙ БАНК

Поиск по сайту







    RRage Against The Machine • Kick Out The Jams (аккорды и текст - chords & lyrics)


    284

    Print

    Видео «Kick Out The Jams (Rage Against The Machine)»

    Видео клипы к песне подбираются автоматически сайтом youtube. Возможны некоторые несоответствия клипов песне.

    ↑ Спрятать рекламу ↑



    Download


     
    
    
    Song:  Kick Out the Jams
    Artist:  Rage Against the Machine
    Album:  Renegade	
    Tabbed by:  Mark Pasierb
    E-mail:  Grandmarkie@hotmail.com
    
    Standard Tuning
    
    (Fig 1)
    
    G | |-----------|
    D | |-----------|
    A | |-----------|
    E | |--5-5-5-7--|
    
    (Fig 2)
    
    G | |-----------------|
    D | |------5-7-7-7-5--|
    A | |--7-7------------|
    E | |-----------------|
    
    (Fig 3)
    
    G | |----------------------------------------|
    D | |------5-12-12-12-12------5-14-14-14-14--|
    A | |--7-7----------------7-7----------------|
    E | |----------------------------------------|
    
    (Fig 4)
    
    G | |------------------|
    D | |------------------|
    A | |--5-7-5-5-5-5-5---|
    E | |------------------|
    
    (Fig 5)
    
    G | |-------------------------|
    D | |-------------------------|
    A | |--7-7-7-7-7-7-7-7-7-7-7--|
    E | |-------------------------|
    
    
    Song Structure:
    
    Fig 1	x1
    Fig 2	x12
    Fig 3	x2 
    Fig 1	x1
    Fig 4	x1
    Fig 2	x12
    Fig 3	x2
    Fig 1	x1
    Fig 4	x1
    Fig 2	x8
    Fig 3	x4
    Fig 2	x10
    Fig 1	x1
    Fig 4	x1
    Fig 5	x1
     

    Тональность:

    Нет текста!



    Назад
    Рекомендуем посмотреть другие песни исполнителя «Rage Against The Machine»:

    • Комментарии Facebook ()
    • Комментарии ВКонтакте



    Добавить в Избранное Браузера
    Сохранить здесь Очистить


    x

    0


    +
    -

    +
    -

    -

    Авторизация





    Зарегистрироваться

    M

    Дата и время

    • 11:13:07
       

    Социальные ссылки


    Наши приложения

    • Muzbank App Play Market
    • Muzbank Amazon App