MUZBANK



A Most Complete Bank Of Music Information

МУЗЫКАЛЬНО-ИНФОРМАЦИОННЫЙ БАНК

Поиск по сайту







    RRage • End Of All Days (аккорды и текст - chords & lyrics)


    322

    Print

    Видео «End Of All Days (Rage)»

    Видео клипы к песне подбираются автоматически сайтом youtube. Возможны некоторые несоответствия клипов песне.

    ↑ Спрятать рекламу ↑



    Download


     
    
    
    pm-глушение
    p-пул
    -слайд
      into
     e----------------------------------------------------------|
     b----------------------------------------------------------|
     g--------------------10p7p0-8p5p0-88-8-8-88-8-8-7-7-77-7-7-| 
     d-10-10-1010-10-1010--------------66-6-6-66-6-6-6-6-66-6-6-|
     a-10-10-1010-10-1010---------------------------------------|
     E-8--8--8-8--8--8-8----------------------------------------|
             pm*     ***               **     **   *     **   * 
      
    Кто знает припев и соло присылайте!!
    
    3-й куплет:
    --------------------------------|
    --------------------------------|
    |--5-55-578-------------------------------|
    |--5-55-578-6-66-689-3-33-355-8-6-5-3-|
    |--3-33-356-6-66-689-3-33-355-8-6-5-3-|
    --4-44-467-1-11-134-6-4-3-1-|
         **         **         **
     

    Тональность:

    Нет текста!



    Назад
    Рекомендуем посмотреть другие песни исполнителя «Rage»:

    • Комментарии Facebook ()
    • Комментарии ВКонтакте



    Добавить в Избранное Браузера
    Сохранить здесь Очистить


    x

    0


    +
    -

    +
    -

    -

    Авторизация





    Зарегистрироваться

    M

    Дата и время

    • 01:01:45
       

    Социальные ссылки


    Наши приложения

    • Muzbank App Play Market
    • Muzbank Amazon App