MUZBANK



A Most Complete Bank Of Music Information

МУЗЫКАЛЬНО-ИНФОРМАЦИОННЫЙ БАНК

Поиск по сайту







    RRaging Speedhorn • The Hate Song (аккорды и текст - chords & lyrics)


    289

    Print

    Видео «The Hate Song (Raging Speedhorn)»

    Видео клипы к песне подбираются автоматически сайтом youtube. Возможны некоторые несоответствия клипов песне.

    ↑ Спрятать рекламу ↑



    Download


     
    
    
    Dead easy this, just pile on the distortion
    
    Intro/Verse
    E|---------------|
    B|---------------|
    G|---------------|
    D|-5-3-0-3-0-0-3-|
    A|-5-3-0-3-0-0-3-|
    D|-5-3-0-3-0-0-3-|
    
    Break
    E|---------------------------------|
    B|---------------------------------|
    G|---------------------------------|
    D|-9-9-9-9-9-9-9-9-9-9-9-9-9-9-9-9-|
    A|-7-7-7-7-7-7-7-7-7-7-7-7-7-7-7-7-|
    D|---------------------------------|
    
    Chorus Lead In
    E|---------------------------------|
    B|---------------------------------|
    G|---------------------------------|
    D|-9-9-9-8-8-8-7-7-7-6-6-6-5-5-5-5-|
    A|-7-7-7-6-6-6-5-5-5-4-4-4-3-3-3-3-|
    D|---------------------------------|
    
    Chorus
    E|---------------------------------------------------|
    B|---------------------------------------------------|
    G|---------------------------------------------------|
    D|-0--3--5--6--5--3--9-9-9-8-8-8-7-7-7-6-6-6-5-5-5-5-|
    A|-0--3--5--6--5--3--7-7-7-6-6-6-5-5-5-4-4-4-3-3-3-3-|
    D|-0--3--5--6--5--3----------------------------------|
    
    Chorus End
    E|----------------------|
    B|----------------------| First chorus don’t
    D|-0--3--5--6--5--3-(0)-| play the last open
    A|-0--3--5--6--5--3—(0)-| string chord
    D|-0--3--5--6--5--3-(0)-|
    
    Intro/Verse X8
    Break
    Intro/Verse X4
    Break
    Intro/Verse X8
    
    Lead In
    Chorus X3
    Chorus End
    
    Intro/Verse X8
    Break
    Intro/Verse X4
    Break
    Intro/Verse X8
    
    Lead In
    Chorus X3
    Chorus End (inc. the open string chord)
     

    Тональность:

    Нет текста!



    Назад
    Рекомендуем посмотреть другие песни исполнителя «Raging Speedhorn»:

    • Комментарии Facebook ()
    • Комментарии ВКонтакте



    Добавить в Избранное Браузера
    Сохранить здесь Очистить


    x

    0


    +
    -

    +
    -

    -

    Авторизация





    Зарегистрироваться

    M

    Дата и время

    • 13:15:47
       

    Социальные ссылки


    Наши приложения

    • Muzbank App Play Market
    • Muzbank Amazon App