MUZBANK



A Most Complete Bank Of Music Information

МУЗЫКАЛЬНО-ИНФОРМАЦИОННЫЙ БАНК

Поиск по сайту







    RRainbow • Man On The Silver Mountain (аккорды и текст - chords & lyrics)


    205

    Print

    Видео «Man On The Silver Mountain (Rainbow)»

    Видео клипы к песне подбираются автоматически сайтом youtube. Возможны некоторые несоответствия клипов песне.

    ↑ Спрятать рекламу ↑



    Download



     
    
    
    Rainbow - Man On The Silver Mountain
                        From the album Rainbow - Rainbow
                             Tabbed by Joe Weldinger
    jweldinger@netzero.net
    
    
             w   3x  H  e  e       e  e  e  e  e  e  e  e     e  e  s  s    
    Gb--||---r---||--r--r-----||---------------------------|----------------
    Db--||*--e--*||--e--e-----||*--------------------------|--------6--4----
    Ab--||*--s--*||--s--s-----||*--------------------------|----------------
    Eb--||---t---||--t--t--2--||---4--4--4--4--4--4--4--4--|--4--4----------
                                                                            
    
        e  q  e  e     e  e  e  e  e  e  e  e     e  e  e  h  e     e  e    
    Gb--------------|--------------------------|-----------------|----------
    Db--6-----------|--------------------------|-----6--4--------|----------
    Ab-----4--2-----|--------------------------|-----------7--7--|----------
    Eb-----------2--|--4--4--4--4--4--4--4--4--|--4--------------|--4--4----
                                                                            
    
        e  e  e  e  e  e     e  e  s  s  e  q  e  e     e  e  e  e  e  e    
    Gb--------------------|--------------------------|----------------------
    Db--------------------|--------6--4--6-----------|--------6-------------
    Ab--------------------|-----------------4--2-----|----------------------
    Eb--4--4--4--4--4--4--|--4--4-----------------2--|--4--4-----4--4--4----
                                                                            
    
        e  e     e  e  e  h  e     h  h     e  e  q  e  e  q     e  e  q    
    Gb--------|-----------------|--------|--------------------|-------------
    Db--6-----|-----6--4--------|--------|--------------------|-------------
    Ab--------|-----------7-----|-----4--|--------------------|-------------
    Eb-----4--|--4-----------0--|--2-----|--4--4--4--4--4--4--|--0--0--0----
                                                                            
    
        e  e  q     e  e  q  e  e  q     e  e  q  e  e  q     e  e  q  e    
    Gb-----------|--------------------|--------------------|----------------
    Db-----------|--------------------|--------------------|----------------
    Ab--4--4--4--|--------------------|--------------------|--4--4--4--4----
    Eb-----------|--2--2--2--2--2--2--|--4--4--4--2--2--2--|----------------
                                                                            
    
        e  q     e  e  q  e  e  q     e  e  q  e  e  q     s  s  e  q  s    
    Gb--------|--------------------|--------------------|-------------------
    Db--------|--------------------|--------------------|-------------------
    Ab--4--4--|-----------4--4--4--|--------------------|--4--6--6--6--4----
    Eb--------|--0--0--0-----------|--4--4--4--4--4--4--|-------------------
                                                                            
    
        s  e  q     e  e  q  e  e  q     s  s  e  q  s  s  e  q     e  e    
    Gb-----------|--------------------|--------------------------|----------
    Db-----------|--------------------|--------------------------|----------
    Ab--6--6--6--|--------------------|--4--6--6--6--4--6--6--6--|----------
    Eb-----------|--7--7--7--7--7--7--|--------------------------|--6--6----
                                                                            
    
        q  e  e  q     e  e  q  e  e  q     e  e  q  e  e  q     e  e  q    
    Gb--------------|--------------------|--------------------|-------------
    Db--------------|--------------------|--------------------|-------------
    Ab--------------|--2--2--2--4--4--4--|--2--2--2-----------|-------------
    Eb--6--6--6--6--|--------------------|-----------4--4--4--|--0--0--0----
                                                                            
    
        e  e  q   2x  e  e  e  e  e  e  e  e     e  e  s  s  e  q  e  e     
    Gb------------||--------------------------|-----------------------------
    Db-----------*||--------------------------|--------6--4--6--------------
    Ab-----------*||--------------------------|-----------------4--2--------
    Eb--2--2--2---||--4--4--4--4--4--4--4--4--|--4--4-----------------2-----
                                                                            
    
           e  e  e  e  e  e  e  e     e  e  e  h  e     e  e  e  e  e  e    
    Gb--|--------------------------|-----------------|----------------------
    Db--|--------------------------|-----6--4--------|----------------------
    Ab--|--------------------------|-----------7--7--|----------------------
    Eb--|--4--4--4--4--4--4--4--4--|--4--------------|--4--4--4--4--4--4----
                                                                            
    
        e  e     e  e  s  s  e  q  e  e     e  e  e  e  e  e  e  e     e    
    Gb--------|--------------------------|--------------------------|-------
    Db--------|--------6--4--6-----------|--------6-----------6-----|-------
    Ab--------|-----------------4--2-----|--------------------------|-------
    Eb--4--4--|--4--4-----------------2--|--4--4-----4--4--4-----4--|--4----
                                                                            
    
        e  e  h  e          e  e  e  e         e  e  e  e  e  e  e  e       
    Gb--------------||------------------|------------------------------|----
    Db--6--4--------||--2:--------------|--4:--------------------------|----
    Ab--------7-----||--4:--------------|--4:--------------------------|----
    Eb-----------0--||------0--0--0--0--|------0--0--2--2--2--2--2--2--|----
                                                                            
    
        e  e  e  e  e  e  e  e     e  e  e  e  e  e  e  e     e  e  e  e    
    Gb--------------------------|--------------------------|----------------
    Db--------------------------|--------------------------|----------------
    Ab--------------------------|--------------------------|----------------
    Eb--4--4--4--4--4--4--4--4--|--4--4--4--4--4--4--4--4--|--0--0--0--0----
                                                                            
    
        e  e  e  e     e  e  e  e  e  e  e  e     e  e  e  e  e  e  e  e    
    Gb--------------|--------------------------|----------------------------
    Db--------------|--------------------------|----------------------------
    Ab--4--4--4--4--|--------------------------|----------------------------
    Eb--------------|--2--2--2--2--2--2--2--2--|--4--4--4--4--4--4--4--4----
                                                                            
    
           e  e  e  e  e  e  e  e     e  e  e  e  e  e  e  e     e  e  e    
    Gb--|--------------------------|--------------------------|-------------
    Db--|--------------------------|--------------------------|-------------
    Ab--|--------------------------|--------------4--4--4--4--|--6--6--6----
    Eb--|--4--4--4--4--4--4--4--4--|--0--0--0--0--------------|-------------
                                                                            
    
        e  e  e  e  e     e  e  e  e  e  e  e  e     e  e  e  e  e  e  e    
    Gb-----------------|--------------------------|-------------------------
    Db-----------------|--------------------------|-------------------------
    Ab--6--6--6--6--6--|--------------------------|-------------------------
    Eb-----------------|--4--4--4--4--4--4--4--4--|--4--4--4--4--4--4--4----
                                                                            
    
        e     e  e  e  e  e  e  e  e     e  e  e  e  e  e  e  e     e  e    
    Gb-----|--------------------------|--------------------------|----------
    Db-----|--------------------------|--------------------------|----------
    Ab-----|--------------------------|--------------------------|----------
    Eb--4--|--0--0--0--0--2--2--2--2--|--4--4--4--4--4--4--4--4--|--4--4----
                                                                            
    
        e  e  e  e  e  e     e  e  e  e  e  e  e  e     e  e  e  e  e  e    
    Gb--------------------|--------------------------|----------------------
    Db--------------------|--------------------------|----------------------
    Ab--------------------|--------------4--4--4--4--|----------------------
    Eb--4--4--4--4--4--4--|--0--0--0--0--------------|--4--4--4--4--4--4----
                                                                            
    
        e  e      s  s  e  q  s  s  e  q     e  e  q  e  e  q     s  s      
    Gb--------||--------------------------|--------------------|------------
    Db--------||--------------------------|--------------------|------------
    Ab--------||--4--6--6--6--4--6--6--6--|--------------------|--4--6------
    Eb--4--4--||--------------------------|--7--7--7--7--7--7--|------------
                                                                            
    
        e  q  s  s  e  q     e  e  q  e  e  q     e  e  q  e  e  q     e    
    Gb--------------------|--------------------|--------------------|-------
    Db--------------------|--------------------|--------------------|-------
    Ab--6--6--4--6--6--6--|--------------------|--2--2--2--4--4--4--|--2----
    Eb--------------------|--6--6--6--6--6--6--|--------------------|-------
                                                                            
    
        e  q  e  e  q     e  e  q  e  e  q       e  e  e  e  e  e  e  e     
    Gb-----------------|--------------------||------------------------------
    Db-----------------|--------------------||*-----------------------------
    Ab--2--2-----------|--------------------||*-----------------------------
    Eb--------4--4--4--|--0--0--0--2--2--2--||---4--4--4--4--4--4--4--4-----
                                                                            
    
           e  e  s  s  e  q  e  e     e  e  e  e  e  e  e  e     e  e  e    
    Gb--|--------------------------|--------------------------|-------------
    Db--|--------6--4--6-----------|--------------------------|-----6--4----
    Ab--|-----------------4--2-----|--------------------------|-------------
    Eb--|--4--4-----------------2--|--4--4--4--4--4--4--4--4--|--4----------
                                                                            
    
        h  e     e  e  e  e  e  e  e  e     e  e  s  s  e  q  e  e     e    
    Gb--------|--------------------------|--------------------------|-------
    Db--------|--------------------------|--------6--4--6-----------|-------
    Ab--7--7--|--------------------------|-----------------4--2-----|-------
    Eb--------|--4--4--4--4--4--4--4--4--|--4--4-----------------2--|--4----
                                                                            
    
        e  e  e  e  e  e  e     e  e  e  h  e   16x                         
    Gb-----------------------|------------------||--------------------------
    Db-----6-----------6-----|-----6--4--------*||--------------------------
    Ab-----------------------|-----------7--7--*||--------------------------
    Eb--4-----4--4--4-----4--|--4---------------||--------------------------
     

    Тональность:

    Нет текста!



    Назад
    Рекомендуем посмотреть другие песни исполнителя «Rainbow»:

    • Комментарии Facebook ()
    • Комментарии ВКонтакте



    Добавить в Избранное Браузера
    Сохранить здесь Очистить


    x

    0


    +
    -

    +
    -

    -

    Авторизация





    Зарегистрироваться

    M

    Дата и время

    • 23:06:57
       

    Социальные ссылки


    Наши приложения

    • Muzbank App Play Market
    • Muzbank Amazon App