MUZBANK



A Most Complete Bank Of Music Information

МУЗЫКАЛЬНО-ИНФОРМАЦИОННЫЙ БАНК

Поиск по сайту







    RRammstein • Engel (аккорды и текст - chords & lyrics)


    522

    Print

    Видео «Engel (Rammstein)»

    Видео клипы к песне подбираются автоматически сайтом youtube. Возможны некоторые несоответствия клипов песне.

    ↑ Спрятать рекламу ↑



    Download



    E|-10----------------------------------------------------------|
    B|-------10----13----10----12----8----10-----------------------|
    
    E|-10----------------------------------------------------------|
    B|-------10----13----10----12----8-----------------------------|
    G|------------------------------------7------------------------|
    
    G|-------------------------------------------------------------|
    D|-------------------------------------------------------------|
    A|3-5-----6-5-----3-5---3-5---6-5-3-5-----6-5-----3-5---3-5-8-8|
    D|----0-0-----0-0-----0-----0---------0-0-----0-0-----0--------|
    
    E|-------------------------------------------------------------|
    B|-------------------------------------------------------------|
    G|5-7-----9-7-----5-7---5-7---9-7-5-7-----9-7-----5-7---5-7-x-x|
    D|5-7-----9-7-----5-7---5-7---9-7-5-7-----9-7-----5-7---5-7-x-x|
    A|3-5-----6-5-----3-5---3-5---6-5-3-5-----6-5-----3-5---3-5-x-x|
    D|----0-0-----0-0-----0-----0---------0-0-----0-0-----0--------|
    
    Wer zu Lebzeit gut auf Erden
    wird nach dem Tod ein Engel werden
    den Blick gen Himmel fragst du dann
    warum man sie nicht sehen kann
    
    Erst wenn die Wolken schlafengehn
    kann man uns am Himmel sehn
    wir haben Angst und sind allein
    Gott weiss ich will kein Engel sein
    
    Проигрыш.
    
    (Бас)
    G|-------------------------------------------------------------|
    D|-------------------------------------------------------------|
    A|3-5-----6-5-----3-5---3-5---6-5-3-5-----6-5-----3-5---3-5-8-8|
    D|----0-0-----0-0-----0-----0---------0-0-----0-0-----0--------|
    
    (Гитара)
    E|-------------------------------------------------------------|
    B|-------------------------------------------------------------|
    G|-5-7-----9-7-----5-7---5-7---9-7-5-7-----9-7----5-7---5-7-x-x|
    D|-5-7-----9-7-----5-7---5-7---9-7-5-7-----9-7----5-7---5-7-x-x|
    A|-3-5-----6-5-----3-5---3-5---6-5-3-5-----6-5----3-5---3-5-x-x|
    D|-----0-0-----0-0-----0-----0---------0-0-----00-----0--------|
    
    Sie leben hinterm Sonnenschein
    getrennt von uns unendlich weit
    sie mussen sich an Sterne krallen [ganz fest]
    damit sie nicht vom Himmel fallen
    
    Erst wenn die Wolken schlafengehn
    kann man uns am Himmel sehn
    wir haben Angst und sind allein
    Gott weiss ich will kein Engel sein
    
    E|-10-12--15---13---12---10---------------------------10-12-10-|
    B|----------------------------13---11-10-8-10-10-8-10----------|
    G|-------------------------------------------------------------|
    D|-------------------------------------------------------------|
    A|-------------------------------------------------------------|
    D|-------------------------------------------------------------|
    

    Тональность:

    Нет текста!



    Назад
    Рекомендуем посмотреть другие песни исполнителя «Rammstein»:

    • Комментарии Facebook ()
    • Комментарии ВКонтакте



    Добавить в Избранное Браузера
    Сохранить здесь Очистить


    x

    0


    +
    -

    +
    -

    -

    Авторизация





    Зарегистрироваться

    M

    Дата и время

    • 20:33:09
       

    Социальные ссылки


    Наши приложения

    • Muzbank App Play Market
    • Muzbank Amazon App