MUZBANK



A Most Complete Bank Of Music Information

МУЗЫКАЛЬНО-ИНФОРМАЦИОННЫЙ БАНК

Поиск по сайту







    RRammstein • Los (аккорды и текст - chords & lyrics)


    2271

    Print

    Видео «Los (Rammstein)»

    Видео клипы к песне подбираются автоматически сайтом youtube. Возможны некоторые несоответствия клипов песне.

    ↑ Спрятать рекламу ↑



    Download


     
    
    
    Band: Ramms+ein
    Album: Reise, Reise
    Song: Los
    
    Version 1.0 - 10-03-2004
    
    Transcribed By: Tino
    Email:          tino_online@hotmail.com
    
    
    .  - palm mute           /  - slide up to
      - slide down to       ~  - vibrato
    h  - hammer on           b  - Bend
    p  - pull off            Suffixes for bend
    t  - tap                 f  - full bend    h - half bend
    ph - pinched harmonic    q  - quarter bend t - tap bend
    *  - see comment         ^  - Hold bend    r release bend
    x  - Stuccatto           ~  - vibrato bend
    ,  - slight palm mute    () - ghost note, sustained note
    "  - tremolo note         - Trill
    
    Rammst+in’s new tuning is C G C F A D (since Reise Reise)
    But this tabulator is written for standard (E A D G B E)
    
    
    Acoustic Guitar
    Main Riff
    3 times
    |----------------------|------------------------|
    |----------------------|------------------------|
    |.-5-x-x-6-x-x-8-x-x--.|-5-x-x-6-x-x-8/10-10-10-|
    |.-5-x-x-6-x-x-8-x-x--.|-5-x-x-6-x-x-8/10-10-10-|
    |--3-x-x-4-x-x-6-x-x---|-3-x-x-4-x-x-6/8--8--8--|
    |----x-x---x-x---x-x---|---x-x---x-x------------|
    
    Solo (Electric Clean w/)
    |--------------------------------------|
    |--------------------------------------|
    |-------------------------------------.|
    |----10--8----------------------------.|
    |-3----------6---3--1--3--6--8--6--3---|
    |--------------------------------------|
    
    
    (edit 20.10.04)
    
    for (C G C F A D)
    
    |---------------------------------------------------------------------------
    |---------------------------------------------------------------------------
    |---------------------------------------------------------------------------
    |-0-----1---3-----0-----1---3-----0-----1---3-----0-----1---3/5-5-5-----1---
    |-0-----1---3-----0-----1---3-----0-----1---3-----0-----1---3/5-5-5-----1---
    |-0-0-0-1-0-3-0-0-0-0-0-1-0-3-0-0-0-0-0-1-0-3-0-0-0-0-0-1-0-3/5-5-5-0-0-1-0-
    
    -------------
    -------------
    -------------
    -3-----0-----
    -3-----0-----
    -3-0-0-0-0-0-... repeat...
    
    
    |------------------------------------------------------------|
    |------------------------------------------------------------|
    |------------------------------------------------------------|
    |-----12---10-------------------------12---10----------------|
    |-5------------8---5-3-5/8-8-10-8-5------------8--repeat-----|
    |------------------------------------------------------------|
    
    
    Have fun playing this cool acoustic song
    so long
    
    
    Wir waren namenlos
    Und ohne Lieder
    Recht wortlos
    Waren wir nie wieder
    
    Etwas sanglos
    Sind wir immer noch
    Dafuer nicht klanglos
    Man hoert uns doch
    
    Nach einem Windstoss
    Ging ein Sturm los
    Einfach beispiellos
    Es wurde Zeit
    
    Los
    
    Sie waren sprachlos
    So sehr schockiert
    Und sehr ratlos - was war passiert?
    
    Etwas fassungslos
    Und garantiert - Verstaendnislos!
    Das wird zensiert!
    
    Sie sagten grundlos
    Schade um die Noten
    So schamlos
    Das gehoert verboten
    
    Es ist geistlos
    Was sie da probieren
    So geschmacklos
    Wie sie musizieren
    
    Es ist hoffnungslos
    Sinnlos
    Hilflos
    Sie sind Gott...
    …los
    
    Wir waren namenlos
    Wir haben einen Namen
    Waren wortlos
    Die Worte kamen
    
    Etwas sanglos
    Sind wir immer noch
    Dafuer nicht klanglos
    Das hoert man doch
    
    Wir sind nicht fehlerlos
    Nur etwas haltlos
    Ihr werdet lautlos
    Uns nie los
    
    Wir waren namenlos
    Und ohne Lieder
    Recht wortlos
    Waren wir nie wieder
    
    Etwas sanglos
    Sind wir immer noch
    Dafuer nicht klanglos
    Man hoert uns doch
    
    Nach einem Windstoss
    Ging ein Sturm los
    Einfach beispiellos
    Wurde zeitlos
    
    Wir waren los
    Wir waren los

    Тональность:

    Нет текста!



    Назад
    Рекомендуем посмотреть другие песни исполнителя «Rammstein»:

    • Комментарии Facebook ()
    • Комментарии ВКонтакте



    Добавить в Избранное Браузера
    Сохранить здесь Очистить


    x

    0


    +
    -

    +
    -

    -

    Авторизация





    Зарегистрироваться

    M

    Дата и время

    • 13:04:46
       

    Социальные ссылки


    Наши приложения

    • Muzbank App Play Market
    • Muzbank Amazon App