MUZBANK



A Most Complete Bank Of Music Information

МУЗЫКАЛЬНО-ИНФОРМАЦИОННЫЙ БАНК

Поиск по сайту







    RRammstein • Sehnsucht (аккорды и текст - chords & lyrics)


    494

    Print

    Видео «Sehnsucht (Rammstein)»

    Видео клипы к песне подбираются автоматически сайтом youtube. Возможны некоторые несоответствия клипов песне.

    ↑ Спрятать рекламу ↑



    Download



    main riff:
    3)           9   8    10   9  12    9    9    10    9>7
    4)           9   8    10   9  12    9    9    10    9>7
    5)           7   6     8   7  10    7    7     8    7>5
    6) 0 0 0
    
    INTRO: main riff x4
    
    1) 8 7 0    0 6 7 8 7 5    5 6 7
    
    куплеты можно играть просто на аккорде Em
    
    Lass mich deine Trane reiten
    ubers Kinn nach Afrika
    wieder in den Schoss der Lowin
    wo ich einst zuhause war
    Zwischen deine langen Beinen
    such den Schnee vom letzten Jahr
    doch es ist kein Schnee mehr da
    
    INTRO.
    
    Lass mich deine Trane reiten
    uber Wolken ohne Gluck
    der grosse Vogel schiebt den Kopf
    sanft in sein Versteck zuruck
    Zwischen deine langen Beinen
    such den Sand vom letzten Jahr
    doch es ist kein Sand mehr da
    
    main riff:
    Sehnsucht versteckt
    sich wie ein Insekt
    im Schlafe merkst du nicht
    dass es dich sticht
    glucklich werd ich nirgendwo
    der Finger rutscht nach Mexiko
    doch er versinkt im Ozean
    A5
    Sehnsucht ist so grausam
    
    main riff:
    SEHNSUCHT!
    SEHNSUCHT!
    SEHNSUCHT!
    SEHNSUCHT!
    
    
    
    
    небольшой проигрыш: C5 G5 A5 E5
    
    SEHNSUCHT!
    SEHNSUCHT!
    SEHNSUCHT!
    SEHNSUCHT!
    
    C5 G5 A5 E5
    
    E5
    Sehnsucht versteckt
    sich wie ein Insekt
         C5		           C5 H5
    im Schlafe merkst du nicht
    A5		A5 A5 G5 F#5
    dass es dich sticht
    glucklich werd ich nirgendwo
    der Finger rutscht nach Mexiko
    doch er versinkt im Ozean
    Sehnsucht ist so grausam
    
    main riff:
    SEHNSUCHT!
    SEHNSUCHT!
    SEHNSUCHT!
    SEHNSUCHT!
    SEHNSUCHT!
    SEHNSUCHT!
    SEHNSUCHT!
    SEHNSUCHT!
    
    
    
    
    
    main bit:
    E|---------------------|-----------------------|
    B|---------------------|-----------------------|
    G|.--------------------|----------------------.|
    D|.-------9-8----10-9--|----12-----10-----9-7-.|
    A|--------7-6----8--7--|----10-----8------7-5--|
    E|--0-0-0-----0--------|--0----0-0----0-0------|
    e e e e e e e e e e e e e s s e e
    pm---] pm pm pm-] pm-]
    
    into verse 1:
    E|-------------|----------|
    B|-------------|----------|
    G|-------------|----------|
    D|-------------|----------|
    A|------5-4-4--|--2-------|
    E|------3-2-2--|--0-------|
    H+E e e e e H+Q+E
    pm---] pm
    
    before they shout "Sehnsucht!"
    E|------------------|-----------------|
    B|------------------|-----------------|
    G|------------------|-----------------|
    D|--9-----9-----9---|---9-------------|
    A|--7-----7-----7---|---7-----5-5-4-4-|
    E|----0-0---0-0---0-|-0---0-0-3-3-2-2-|
    e e e e e e e e e e e e e e e e
    pm-] pm-] pm pm pm---------]
    
    break:
    E|-------------|-----------|
    B|-------------|-----------|
    G|-------------|-----------|
    D|--5----------|-----------|
    A|--3---5---7--|-(7)-2-----|
    E|------3---5--|-(5)-0-----|
    q+e q+e q + e h+q+e
    
    middle:
    E|-----|--------------|-----|-----------------|
    B|-----|--------------|-----|-----------------|
    G|-----|--------------|-----|-----------------|
    D|-----|--------------|-----|-----------------|
    A|--2--|-(2)-5-5-4-4--|--2--|-(2)--5-5-4-4-4--|
    E|--0--|-(0)-3-3-2-2--|--0--|-(0)--3-3-2-2-2--|
    w + h e e e e w + h e e e s s
    pm-----] pm-------]
    
    e|-----|----------|-----|--------------|
    B|-----|----------|-----|--------------|
    G|-----|----------|-----|--------------|
    D|--5--|-(5)-5-4--|--2--|-(2)----------|
    A|--3--|-(3)-3-2--|--0--|-(0)-5-5-4-4--|
    E|-----|----------|-----|-----3-3-2-2--|
    w + h q q w + h e e e e
    pm-----]
    
    end:
    e|--------------------|----------------------|
    B|--------------------|----------------------|
    G|--------------------|----------------------|
    D|--------9-8----10-9-|----12------10--------|
    A|--------7-6----8--7-|----10------8---------|
    E|--0-0-0-----0-------|--0-----0-0-----------|
    e e e e e e e e e e e e e Q+E
    pm---] pm pm pm-]
    

    Тональность:

    Нет текста!



    Назад
    Рекомендуем посмотреть другие песни исполнителя «Rammstein»:

    • Комментарии Facebook ()
    • Комментарии ВКонтакте



    Добавить в Избранное Браузера
    Сохранить здесь Очистить


    x

    0


    +
    -

    +
    -

    -

    Авторизация





    Зарегистрироваться

    M

    Дата и время

    • 19:14:10
       

    Социальные ссылки


    Наши приложения

    • Muzbank App Play Market
    • Muzbank Amazon App