MUZBANK



A Most Complete Bank Of Music Information

МУЗЫКАЛЬНО-ИНФОРМАЦИОННЫЙ БАНК

Поиск по сайту







    RRammstein • Tier (аккорды и текст - chords & lyrics)


    527

    Print

    Видео «Tier (Rammstein)»

    Видео клипы к песне подбираются автоматически сайтом youtube. Возможны некоторые несоответствия клипов песне.

    ↑ Спрятать рекламу ↑



    Download



      G     A#    C     D
    
    E|-5-| |-1-| |-0-| |-3-|
    B|-5-| |-3-| |-1-| |-2-|
    G|-0-| |-3-| |-0-| |-3-|
    D|-0-| |-3-| |-2-| |-0-|
    A|-5-| |-1-| |-3-| |-0-|
    D|-5-| |---| |---| |-0-|
    
    акустическое начало/конец
    
    G A# C D
    
    G A# C
    
    гланый рифф
    
    E|----------------------------------------------------------|
    B|----------------------------------------------------------|
    G|-----------------8-7-5/7---------------------8-10-87------|
    D|-----------------8-7-5/7---------------------8-10-87------|
    A|-3h5-----3h5-----6-5-3/5-----3h5-----3h5-----6--8-65------|
    D|-----0-0-----0-0---------0-0-----0-0-----0-0----------0-0-|
    pm.] pm.] pm.] pm.] pm.] pm.]
    
    хорус
    
    E|-----------------|-----------------|
    B|-----------------|-----------------|
    G|-----------------|-----------------|
    D|-----------------|-----------------|
    A|-3h5-5-5-3h5-5-5-|-5h8-8-8-5h8-8-8-|
    D|-3h5-5-5-3h5-5-5-|-5h8-8-8-5h8-8-8-|
    
    E|-----------------------|-----------------|
    B|-----------------------|-----------------|
    G|-----------------------|-----------------|
    D|-----------------------|-----------------|
    A|-8h10-10-10-8h10-10-10-|-0h3-3-3-0h3-3-3-|
    D|-8h10-10-10-8h10-10-10-|-0h3-3-3-0h3-3-3-|
    
    клавишные
    E|------5-----1-----3-|
    B|-3------------------|
    G|--------------------|
    D|--------------------|
    A|--------------------|
    D|--------------------|
    
    Was macht ein Mann
    was macht ein Mann
    der zwischen Mensch und Tier
    nicht unterscheiden kann
    was
    
    Er wird zu seiner Tochter gehen
    sie ist schon und jung an Jahren
    und dann wird er wie ein Hund
    mit eigen Fleisch und Blut sich paaren
    
    Was - tust du
    Was - fuhlst du
    Was - bist du
    doch nur ein Tier
    
    Was macht die Frau
    was macht die Frau
    die zwischen Tier und Mann
    nicht unterscheiden kann
    
    Sie taucht die Feder in sein Blut
    schreibt sich selber einen Brief
    entseelte Zeilen an die Kindheit
    als der Vater bei ihr schlief
    
    Was - tust du
    Was - fuhlst du
    Was - bist du
    doch nur ein Tier
    

    Тональность:

    Нет текста!



    Назад
    Рекомендуем посмотреть другие песни исполнителя «Rammstein»:

    • Комментарии Facebook ()
    • Комментарии ВКонтакте



    Добавить в Избранное Браузера
    Сохранить здесь Очистить


    x

    0


    +
    -

    +
    -

    -

    Авторизация





    Зарегистрироваться

    M

    Дата и время

    • 23:00:59
       

    Социальные ссылки


    Наши приложения

    • Muzbank App Play Market
    • Muzbank Amazon App