MUZBANK



A Most Complete Bank Of Music Information

МУЗЫКАЛЬНО-ИНФОРМАЦИОННЫЙ БАНК

Поиск по сайту







    RRammstein • Wollt Ihr Das Bett In Flammen Sehen (аккорды и текст - chords & lyrics)


    501

    Print

    Видео «Wollt Ihr Das Bett In Flammen Sehen (Rammstein)»

    Видео клипы к песне подбираются автоматически сайтом youtube. Возможны некоторые несоответствия клипов песне.

    ↑ Спрятать рекламу ↑



    Download


     
    
    
    Wollt Ihr Das Bett In Flammen Sehen - Rammstein
    
    By: Jon Craven (i_apathy@hotmail.com)
    For questions, comments, feedback, an outline of the timing, write the above
    address.
    
    Note:
      -Played with a pick.
    
    (4/4)(130 bpm)
    E string tuned to Eb
    
    R - quarter rest
    r - eighth rest
    
    Intro: (0:32)
    |--------------------|--------------------|--------------------|
    |--------------------|--------------------|--------------------|
    |-----------------10-|-----------------10-|-----------------10-|
    |11-0-12-0-11-0-0----|11-0-12-0-11-0-0----|11-0-12-0-11-0-0----|
    
    |--------------------|--------------------|--------------------|
    |--------------------|--------------------|--------------------|
    |-----------------10-|-----------------10-|-----------------10-|
    |11-0-12-0-11-0-0----|11-0-12-0-11-0-0----|11-0-12-0-11-0-0----|
    
    |--------------------|-------------------|
    |--------------------|-------------------|
    |-----------------10-|-------------------|
    |11-0-12-0-11-0-0----|11-0-12-0-11-R---r-|
    
    Chorus (verse/pre-chorus/outro pt.1): (x14)(0:47)
    |--------------------|
    |--------------------|
    |-----------------10-|
    |11-0-12-0-11-0-0----|
    
    Fill: (x4)(1:13)
    |--------------------|
    |--------------------|
    |---------------10---|
    |11-0-12-0-11-0------|
    
    Verse (x16)
    Pre-chorus (x10)
    Verse (x16)
    Pre-chorus (x12)
    Rest for two measures
    
    Interlude: (x2)(3:04)
    |----------------|----------------|----------------|----------------|
    |----------------|----------------|----------------|----------------|
    |----------------|----------------|----------------|----------------|
    |00002-0---0---0-|00002-0---0---0-|00002-0---0---0-|00002-0---0---0-|
    
    |----------------|----------------|----------------|----------------|
    |----------------|----------------|----------------|----------------|
    |----------------|----------------|----------------|----------------|
    |00002-0---0---0-|00002-0---0---0-|00002-0---0---0-|00002-0-R---R---|
    
    Bridge: (3:32)
    |----------------|
    |----------------|
    |5-5-5-5-5-5-5-5-|
    |----------------|
    
    Fill (x6)
    Rest for two measures
    Chorus (x14)
    Outro pt.1 (x28)
    
    Outro pt.21: (5:06)
    |-----------------|
    |-----------------|
    |-----------------|
    |11-0-R---R---R---|
    
    Rest till end
     

    Тональность:

    Нет текста!



    Назад
    Рекомендуем посмотреть другие песни исполнителя «Rammstein»:

    • Комментарии Facebook ()
    • Комментарии ВКонтакте



    Добавить в Избранное Браузера
    Сохранить здесь Очистить


    x

    0


    +
    -

    +
    -

    -

    Авторизация





    Зарегистрироваться

    M

    Дата и время

    • 03:28:20
       

    Социальные ссылки


    Наши приложения

    • Muzbank App Play Market
    • Muzbank Amazon App