MUZBANK



A MOST COMPLETE BANK OF MUSIC INFORMATION

МУЗЫКАЛЬНО-ИНФОРМАЦИОННЫЙ БАНК







    RRamones • Havana Affair (аккорды и текст - chords & lyrics)


    333

    Print

    Видео «Havana Affair (Ramones)»

    Видео клипы к песне подбираются автоматически сайтом youtube. Возможны некоторые несоответствия клипов песне.

    ↑ Спрятать рекламу ↑






     
    
    
    Band:THE RAMONES
    
    Song:havana affair
    
    tabbed by:ryan
    
    
    
    Into
    
    G:---------------------------------
    
    D:----------------------------------
    
    A:------------5-----------------5
    
    E:-7-7-7-7----5--7-7-7-7----5
    
    
    
    Verse
    
    G:-----------------------------------------------
    
    D:-----------------------------------------------
    
    A:-----------------------------------------------
    
    E:-7-7-7-7--3-3-3-3--5-5-5-5--2-2-2-2
    
    
    
    Chorus
    
    G:-----------------------
    
    D:-----------------------
    
    A:-----------------------
    
    E:-3-3-3-3--2-2-2-2
    
    
    
    Mid part
    
    G:
    
    D:
    
    A:-------5-7-----------5-7------------5-7------------5-7
    
    E:-5-7------5-7--5-7-----5-7--5-7-----5-7--5-7
     

    Тональность:

    Это должно быть в ТОП-листе! - Топ-лист композиций



    Назад
    Рекомендуем посмотреть другие песни исполнителя «Ramones»:

    • Комменты Fb ()
    • Комменты ВК



    Добавить в Избранное Браузера
    Сохранить здесь Очистить


    x

    0


    +
    -

    +
    -

    -

    Авторизация





    Зарегистрироваться

    M

    Дата и время

    • 20:56:27
       

    Социальные ссылки


    Наши приложения

    • Muzbank App Play Market
    • Muzbank Amazon App